Oops, an error
Loading. Please wait.

Pressure Tab

3,584 views 6 this week
2 commentsread comments
1 2 3 4 5
x 4
add to favorites
launch autoscroll
font size
0
reset
how to read this tab
guitar tuner
Autoscroll
slow
fast
+/-
esc
set tempo
stop
Help us to improve Ultimate-Guitar.com Take our survey!
×
Author
Difficulty
novice
Known faults:
The first part of the chorus isn't 100% correct
The chord bit in the bridge is missing

Intro
e |-----------------------|
B |-----------------------|
G |-----------------------|
D |--66--66--66-99-88-44--| [x2]
A |--66--66--66-99-88-44--|
E |--44--44--44-77-66-22--|

e |--11[x16]-14[x16]-13[x16]-9[x8]-11[x8]--|
B |----------------------------------------|
G |----------------------------------------|
D |----------------------------------------|
A |----------------------------------------|
E |----------------------------------------|

Verse
e |-----------------------|
B |-----------------------|
G |-----------------------|
D |--66--66--66-99-88-44--| [x4]
A |--66--66--66-99-88-44--|
E |--44--44--44-77-66-22--|

Chorus
e |-------------------------------------------------------------------------|
B |-------------------------------------------------------------------------|
G |-------------------------------------------------------------------------|
D |--6-66-6-6-6-66-6-6-9-99-9-9-9-99-9-9-8-88-8-8-8-88-8-8-6-66-6-6-6-66-6--|
A |--6-66-6-6-6-66-6-6-9-99-9-9-9-99-9-9-8-88-8-8-8-88-8-8-6-66-6-6-6-66-6--|
E |--4-44-4-4-4-44-4-4-7-77-7-7-7-77-7-7-6-66-6-6-6-66-6-6-4-44-4-4-4-44-4--|

e |----------------------------------------------------------------|
B |--9[x12]-11[x4]--9[x12]-11[x4]--12[x12]-14[x4]--12[x12]-14[x4]--|
G |----------------------------------------------------------------|
D |----------------------------------------------------------------|
A |----------------------------------------------------------------|
E |----------------------------------------------------------------|

Bridge

[Chord bit]

This bit there are lots of notes so I couldn't count how many there were but I've got 
different changes down so you'll have to figure out how many on each the bit with the * 
it only plays one on it
e |--11-9-11-9*----9--|
B |-------------12----|
G |-------------------|
D |-------------------|
A |-------------------|
E |-------------------|

Structure

Intro
Verse
Chorus
Bridge
Verse
Chorus x2
Verse but only plays it twice

Not 100% but not too bad I don't think
Suggest correction
comments
print report bad tab
2 comments total.
+1 reply
Dmcg 10 Dec 01, 2007 03:03 PM

the solo bit at the intro isnt right it should be


on the e string :11 14 11 14 11 14 11 14 11 7 9


work out
timeing for your self

0 reply
IndieLegend25 10 Mar 18, 2008 06:17 PM

the intro chords arent right either :p

guest
You may want to rate the tab now too:
select rating
Wanna post a correction for this tab? Suggest correction