Oops, an error
Loading. Please wait.

Technodanceaphobic Bass Tab

version 1
version 1

Whole song

Interactive

405 views 1 this week
1 commentread comment
1 2 3 4 5
2 more votes to show rating
add to favorites
launch autoscroll
font size
0
reset
guitar tuner
Autoscroll
slow
fast
+/-
esc
set tempo
stop
Help us to improve Ultimate-Guitar.com Take our survey!
×
Difficulty
novice
Intro
 ]----------------------------------------------------------------| x2
 ]----------------------------------------------------------------|
 ]----------------------------------------------------------------|
 ]---44444444333333332222222222222222-----------------------------|

Verse

 ]----------------------------------------------------------------| x3
 ]----------------------------------------------------------------|
 ]----------------------------------------------------------------|
 ]---44-77-9-9-9--9-9-9-------------------------------------------|

 ]----------------------------------------------------------------| x1
 ]----------------------------------------------------------------|
 ]----------------------------------------------------------------|
 ]---44-77-9-9-9-9-9-9-9-9----------------------------------------|

Chorus
 ]----------------------------------------------------------------| x3
 ]----------------------------------------------------------------|
 ]----------------------------------------------------------------|
 ]---4444-7777-9-9-9-9-9-9-9-9------------------------------------|

 ]----------------------------------------------------------------| x1
 ]----------------------------------------------------------------|
 ]----------------------------------------------------------------|
 ]---4444-7777-9-9-9----------------------------------------------|
Suggest correction
Give kudos to tab author, rate the tab!
1 2 3 4 5
comments
print report bad tab
1 comment total.
0 reply
littledan23 52 Dec 31, 2007 01:37 PM

well done on this tab its preety good by the sound of it :D

guest
You may want to rate the tab now too:
select rating
Wanna post a correction for this tab? Suggest correction