Oops, an error
Loading. Please wait.

Technodanceaphobic Tab

version 1
version 1

Whole song

Interactive

4,564 views 1 this week
7 commentsread comments
1 2 3 4 5
accurate
x 5
add to favorites
launch autoscroll
font size
0
reset
how to read this tab
guitar tuner
Tab Pro tools
  • play this tab
  • loop segment
  • change instrument
  • show fretboard
  • metronome
×
Best way to learn
"Technodanceaphobic"
Autoscroll
slow
fast
+/-
esc
set tempo
stop
Contributor
One of the best songs off the album by one of the best bands around.

Intro
 ]----------------------------------------------------------------|
 ]----------------------------------------------------------------|
 ]----------------------------------------------------------------| x2
 ]---66666666555555554444444444444444-----------------------------|
 ]---66666666555555554444444444444444-----------------------------|
 ]---44444444333333332222222222222222-----------------------------|

Verse
 ]----------------------------------------------------------------|
 ]----------------------------------------------------------------|
 ]----------------------------------------------------------------| x3
 ]---66-99-111111-111111------------------------------------------|
 ]---66-99-111111-111111------------------------------------------|
 ]---44-77-9-9-9--9-9-9-------------------------------------------|

 ]----------------------------------------------------------------|
 ]----------------------------------------------------------------|
 ]----------------------------------------------------------------| x1
 ]---66-99-1111111111111111---------------------------------------|
 ]---66-99-1111111111111111---------------------------------------|
 ]---44-77-9-9-9-9-9-9-9-9----------------------------------------|

Chorus
 ]----------------------------------------------------------------|
 ]----------------------------------------------------------------|
 ]----------------------------------------------------------------| x3
 ]---6666-9999-1111111111111111-----------------------------------|
 ]---6666-9999-1111111111111111-----------------------------------|
 ]---4444-7777-9-9-9-9-9-9-9-9------------------------------------|


 ]----------------------------------------------------------------|
 ]----------------------------------------------------------------|
 ]----------------------------------------------------------------| x1
 ]---6666-9999-111111---------------------------------------------|
 ]---6666-9999-111111---------------------------------------------|
 ]---4444-7777-9-9-9----------------------------------------------|

Solo
 ]----------------------------------------------------------------|
 ]----------------------------------------------------------------|
 ]---11-11-9-9-6-6-9-6--666-666-----------------------------------| x4
 ]----------------------------------------------------------------|
 ]----------------------------------------------------------------|
 ]----------------------------------------------------------------|
comments
print report bad tab
7 comments total. Showing first comments.
+1 reply
Dmcg wrote on July 20 2007, 06:10 am

exactly the way i play it

0 reply
themod wrote on July 21 2007, 04:07 am

I think in the verses it is down ere

|-----------------------------|
|-----------------------------|
|-------10-10-11-11--11-11-11-|
|-11-11--8--8--9--9---9--9--9-|
|-9--9------------------------|
|-------------------0---------|

then go lower for the chorus

+1 reply
themod wrote on August 2 2007, 04:55 am

ignore my last comment it is totally wrong

I want to post or [tab]
guest
You may want to rate the tab now too:
select rating
Please do not post tabs as comments. Select "correction" instead!