Oops, an error
Loading. Please wait.

Technodanceaphobic Bass Tab

version 2
version 2

Whole song

Interactive

1,219 views 1 this week
no commentswrite comment
1 2 3 4 5
2 more votes to show rating
add to favorites
launch autoscroll
font size
0
reset
guitar tuner
Autoscroll
slow
fast
+/-
esc
set tempo
stop
Help us to improve Ultimate-Guitar.com Take our survey!
×
Author
Band: The Enemy
Album: We’ll live and die in these towns
Song: Technodanceaphobic

\ = slide down

please rate

Intro:

G|---------------------------------|
D|---------------------------------| 
A|---------------------------------|
E|-4444444433333333222222222222222-|

G|---------------------------------|
D|---------------------------------| 
A|-------------------------4---245\|
E|-44444443333333322222222--245----|

Verse 1 (0:11) x3

G|------------------|
D|------------------| 
A|-----2-2--44--44--| x3
E|-4-4--------4---4-|

G|------------------|
D|------------------| 
A|-----2-2---444444-| 
E|-4-4--------------|


Chorus (0:49)

G|------------------|
D|------------------| 
A|-----222244444444-| x3
E|-4444-------------|

G|------------------|
D|------------------| 
A|-----22224--4--4\-|
E|-4444-------------|

Verse 2 (1:01)

G|------------------|
D|------------------| 
A|-----2-2--44--44--| x3
E|-4-4--------4---4-|

G|------------------|
D|------------------| 
A|-----2-2---444444-| 
E|-4-4--------------|

G|------------------|
D|------------------| 
A|-----2-2--44--44--| x3
E|-4-4--------4---4-|

G|------------------|
D|------------------| 
A|-----2-2---4444-4\| 
E|-4-4--------------|

G|------------------|
D|------------------| 
A|-----2-2--44--44--| x3
E|-4-4--------4---4-|

G|------------------|
D|------------------| 
A|-----2-2---444444-| 
E|-4-4--------------|

Then repeat:

Chorus (1:39)
Verse 1 (1:51) x1
Chorus (2:03) x2
Suggest correction
Give kudos to tab author, rate the tab!
1 2 3 4 5
comments
print report bad tab
guest
You may want to rate the tab now too:
select rating
Wanna post a correction for this tab? Suggest correction