Oops, an error
Loading. Please wait.

This Song Bass Tab

2,528 views 1 this week
no commentswrite comment
1 2 3 4 5
2 more votes to show rating
add to favorites
launch autoscroll
font size
0
reset
guitar tuner
Autoscroll
slow
fast
+/-
esc
set tempo
stop
Help us to improve Ultimate-Guitar.com Take our survey!
×
Author
Band: The Enemy
Album: We'll Live & Die In These Towns
Song: This Song

I realize I haven’t done the timing 
perfectly but I hope it’s ok.

Please rate

~ = let ring
/ =slide up
\ = slide down

Verse 1 (0:10)

G|----------------------------------|
D|------------3-1-------------------| 
A|-4~--------4----4-----------------| x12
E|-----------------2~---------------|

(1:02):

G|----------------------------------|
D|-1---1---1---1---4---4---4---4----| 
A|----------------------------------|
E|----------------------------------|

G|----------------------------------|
D|------------3-1-------------------| 
A|-4~--------4----4-----------------| 
E|-----------------2~---------------|

G|----------------------------------|
D|-1---1---1---1---4---4---4---4----| 
A|----------------------------------|
E|----------------------------------|

Chorus (1:15) x4

G|-/6---6-666-6-666\1---1-111-1-111-|
D|----------------------------------| 
A|----------------------------------|
E|----------------------------------|

G|----------------------------------|
D|-/9---9-999-9-999\4---4-444-4-444-| 
A|----------------------------------|
E|----------------------------------|

Verse 2 (1:50)

G|----------------------------------|
D|------------3-1-------------------| 
A|-4~--------4----4-----------------| x10
E|-----------------2~---------------|

(2:34):

G|----------------------------------|
D|-1---1---1---1---4---4---4---4----| 
A|----------------------------------|
E|----------------------------------|

G|----------------------------------|
D|------------3-1-------------------| 
A|-4~--------4----4-----------------| 
E|-----------------2~---------------|

G|----------------------------------|
D|-1---1---1---1---4---4---4---4----| 
A|----------------------------------|
E|----------------------------------|

Chorus 2 (2:47) x4

G|-/6---6-666-6-666\1---1-111-1-111-|
D|----------------------------------| 
A|----------------------------------|
E|----------------------------------|

G|----------------------------------|
D|-/9---9-999-9-999\4---4-444-4-444-| 
A|----------------------------------|
E|----------------------------------|

End: (3:22)

G|----------------------------------|
D|------------3-1-------------------| 
A|-4~--------4----4-----------------| x12
E|-----------------2~---------------|

End note:

G|----|
D|----| 
A|-4~-|
E|----|
Suggest correction
Give kudos to tab author, rate the tab!
1 2 3 4 5
comments
print report bad tab
guest
You may want to rate the tab now too:
select rating
Wanna post a correction for this tab? Suggest correction