Oops, an error
Loading. Please wait.

Well Live And Die In These Towns album tab

version 1
version 1

Album

Whole song

6,700 views 1 this week
1 commentread comment
1 2 3 4 5
x 4
add to favorites
×
Save as Personal and add changes to this tab that will be seen only by you. Learn more ›
×
You can save this tab as Personal to edit and correct it or add notes. All changes will be seen only by you. Learn more »
launch autoscroll
font size
0
reset
how to read this tab
guitar tuner
edit
Autoscroll
slow
fast
+/-
esc
set tempo
stop
Author
Artist: The Enemy
Album: We'll Live & Die in These Towns
Tracklist:
1. Aggro (thanks to AJ)
2. Away From Here (thanks to Samlawd)
3. Pressure (thanks to The Turncoat)
4. Had Enough (thanks to Jenks)
5. We'll Live & Die in These Towns (thanks to darvellr)
6. You're Not Alone (thanks to NoLoveLost)
7. It's Not OK (thanks to Dom_y2k4)
8. Technodanceaphobic (thanks to Ewand)
9. 40 Days & 40 Nights (thanks to Ewand)
10. This Song (tabbed by me)
11. Happy Birthday Jane (thanks to Dom_y2k4)

add me on myspace:
www.myspace.com/gazguitarkid438709

1. Aggro:

Intro:

e|---------------------------------------------------------------------------|
B|---------------------------------------------------------------------------|
G|--6-6-6-6-4-4-7-7-7-7-7-7--------------------------------------------------|
D|--6-6-6-6-4-4-7-7-7-7-7-7---x4---------------------------------------------|
A|--4-4-4-4-2-2-5-5-5-5-5-5--------------------------------------------------|
E|---------------------------------------------------------------------------|


Verse:

e|---------------------------------------------------------------------------|
B|---------------------------------------------------------------------------|
G|--6-6-6-6-4-4-7-7-7-7-7-7--------------------------------------------------|
D|--6-6-6-6-4-4-7-7-7-7-7-7--x4----------------------------------------------|
A|--4-4-4-4-2-2-5-5-5-5-5-5--------------------------------------------------|
E|---------------------------------------------------------------------------|

Pre-Chorus:

e|---------------------------------------------------------------------------|
B|---------------------------------------------------------------------------|
G|---------------------------------------------------------------------------|
D|--4-4-4-4-2-2-5-5-5--------------------------------------------------------|
A|--4-4-4-4-2-2-5-5-5--x4----------------------------------------------------|
E|--2-2-2-2-0-0-3-3-3--------------------------------------------------------|

Chorus:

e|---------------------------------------------------------------------------|
B|---------------------------------------------------------------------------|
G|--6-6-6-6-6-6-6-6-2-2-2-2-2-2-2-2-------------------------4-4-7-7----------|
D|--6-6-6-6-6-6-6-6-2-2-2-2-2-2-2-2-6-6-6-6-6-6-6-6-4-4-4-4-4-4-7-7----------|
A|--4-4-4-4-4-4-4-4-0-0-0-0-0-0-0-0-6-6-6-6-6-6-6-6-4-4-4-4-2-2-5-5----------|
E|----------------------------------4-4-4-4-4-4-4-4-2-2-2-2------------------|


Pre-Verse:

e|---------------------------------------------------------------------------|
B|---------------------------------------------------------------------------|
G|--6-6-6-6-4-4-7-7-7-7-7-7-6-6-6-6-4-7~~~~----------------------------------|
D|--6-6-6-6-4-4-7-7-7-7-7-7-6-6-6-6-4-7~~~~----------------------------------|
A|--4-4-4-4-2-2-5-5-5-5-5-5-4-4-4-4-2-5~~~~----------------------------------|
E|---------------------------------------------------------------------------|

Repeat verse.
Repeat chorus.


Bridge:

e|---------------------------------------------------------------------------|
B|---------------------------------------------------------------------------|
G|---------------------------------------------------------------------------|
D|--6~~~~~~~-11~~~-9~~~-6~~~~~~~-11~~~-9~~~-6~~~~~~~-------------------------|
A|--4~~~~~~~-9~~~~-7~~~-4~~~~~~~-9~~~~-7~~~-4~~~~~~~-------------------------|
E|---------------------------------------------------------------------------|

e|---------------------------------------------------------------------------|
B|---------------------------------------------------------------------------|
G|--11~~~-9~~~-6~~~~~~~-11~~~-12~~~-13~~~~~~~--------------------------------|
D|--9~~~~-7~~~-4~~~~~~~-9~~~~-10~~~-11~~~~~~~--------------------------------|
A|---------------------------------------------------------------------------|
E|---------------------------------------------------------------------------|

Repeat Chorus.


2. Away From Here:

Intro/Verse 1
e|---------------------------------------------------------------------------|
B|---------------------------------------------------------------------------|
G|-6-6~~---------------------------------------------------------------------|
D|-6-6~~---4-4~~--4-4~~--4-4/6~~--6-6~~--6-6\4~~--4-4~-4-4-4-4-4-4-4-4-4-4-4-|
A|-4-4~~---4-4~~--4-4~~--4-4/6~~--6-6~~--6-6\4~~--4-4~-4-4-4-4-4-4-4-4-4-4-4-|
E|---------2-2~~--2-2~~--2-2/4~~--4-4~~--4-4\2~~--2-2~-2-2-2-2-2-2-2-2-2-2-2-|

  Chorus
e|---------------------------------------------------------------------------|
B|---------------------------------------------------------------------------|
G|-6-6-6-6-6-6-5-5-5-5-5-5---------------------------------------------------|
D|-6-6-6-6-6-6-6-6-6-6-6-6--x2 then--4-4-4-4-4-3-3-3-3-3-3-3-----------------|
A|-4-4-4-4-4-4-3-3-3-3-3-3-----------4-4-4-4-4-4-4-4-4-4-4-4-x2--------------|
E|-----------------------------------2-2-2-2-2-2-2-2-2-2-2-2-----------------|

  verse 2
e|---------------------------------------------------------------------------|
B|---------------------------------------------------------------------------|
G|-6-6-6-6-6-5-6-5-6-5-6-----------------------------------------------------|
D|-x-x-x-x-x-x-x-x-x-x-x-x2 then--4-4-4-4-4-3-4-3-4-3-4----------------------|
A|-4-4-4-4-4-4-4-4-4-4-4----------4-4-4-4-4-4-4-4-4-4-4-x2-------------------|
E|--------------------------------2-2-2-2-2-2-2-2-2-2-2----------------------|

  pre-chorus
e|---------------------------------------------------------------------------|
B|---------------------------------------------------------------------------|
G|---------------------------------------------------------------------------|
D|-6-6-6-6-6-6-6-6-6-6-6-6-6-4-4-4-4-4-4-4-4-4-4-4-4-4-----------------------|
A|-6-6-6-6-6-6-6-6-6-6-6-6-6-4-4-4-4-4-4-4-4-4-4-4-4-4-----------------------|
E|-4-4-4-4-4-4-4-4-4-4-4-4-4-2-2-2-2-2-2-2-2-2-2-2-2-2-----------------------|


  Repeat Chorus


  Middle/Solo thing
e|---------------------------------------------------------------------------|
B|---------------------------------------------------------------------------|
G|-6-6-6-6-6-5-6-6-5-6-6-6----6-6-6-6-6/8/10-11-10-11-11-11-10\6-6-6/11-10\--|
D|-x-x-x-x-x-x-x-x-x-x-x-x----x-x-x-x-x-x-x--x--x--x--x--x--x--x-x-x-x--x----|
A|-4-4-4-4-4-3-4-4-3-4-4-4----4-4-4-4-4/6/8--9--8--9--9--9--8-\4-4-4/9--8-\--|
E|---------------------------------------------------------------------------|

e|---------------------------------------------------------------------------|
B|---------------------------------------------------------------------------|
G|\6-6-6/11-10-11-11-11-10-11-10---------------------------------------------|
D|-x-x-x-x--x--x--x--x--x--x--x--etc.----------------------------------------|
A|\4-4-4/9--8--9--9--9--8--9--8----------------------------------------------|
E|---------------------------------------------------------------------------|

  Verse 3 - Repeat Verse 2
  
  Then

  Repeat Pre-chorus

  Final Chorus
e|---------------------------------------------------------------------------|
B|---------------------------------------------------------------------------|
G|--------6-6-6-6-6-6-5-5-5-5-5-5--------------------------------------------|
D|-4~~----6-6-6-6-6-6-6-6-6-6-6-6--x2 then--4-4-4-4-4-4-3-3-3-3-3-3----------|
A|-4~~----4-4-4-4-4-4-3-3-3-3-3-3-----------4-4-4-4-4-4-4-4-4-4-4-4-x2-------|
E|-2~~--------------------------------------2-2-2-2-2-2-2-2-2-2-2-2----------|

e|---------------------------------------------------------------------------|
B|---------------------------------------------------------------------------|
G|-6~~-----------------------------------------------------------------------|
D|-6~~-----------------------------------------------------------------------|
A|-4~~--4b6-4-4-4-4---4~~----------------------------------------------------|
E|---------------------------------------------------------------------------|


3. Pressure:

Intro
e |-----------------------|
B |-----------------------|
G |-----------------------|
D |--66--66--66-99-88-44--| [x2]
A |--66--66--66-99-88-44--|
E |--44--44--44-77-66-22--|

e |--11[x16]-14[x16]-13[x16]-9[x8]-11[x8]--|
B |----------------------------------------|
G |----------------------------------------|
D |----------------------------------------|
A |----------------------------------------|
E |----------------------------------------|

Verse
e |-----------------------|
B |-----------------------|
G |-----------------------|
D |--66--66--66-99-88-44--| [x4]
A |--66--66--66-99-88-44--|
E |--44--44--44-77-66-22--|

Chorus
e |-------------------------------------------------------------------------|
B |-------------------------------------------------------------------------|
G |-------------------------------------------------------------------------|
D |--6-66-6-6-6-66-6-6-9-99-9-9-9-99-9-9-8-88-8-8-8-88-8-8-6-66-6-6-6-66-6--|
A |--6-66-6-6-6-66-6-6-9-99-9-9-9-99-9-9-8-88-8-8-8-88-8-8-6-66-6-6-6-66-6--|
E |--4-44-4-4-4-44-4-4-7-77-7-7-7-77-7-7-6-66-6-6-6-66-6-6-4-44-4-4-4-44-4--|

e |----------------------------------------------------------------|
B |--9[x12]-11[x4]--9[x12]-11[x4]--12[x12]-14[x4]--12[x12]-14[x4]--|
G |----------------------------------------------------------------|
D |----------------------------------------------------------------|
A |----------------------------------------------------------------|
E |----------------------------------------------------------------|

Bridge

[Chord bit]

This bit there are lots of notes so I couldn't count how many there were but I've got 
different changes down so you'll have to figure out how many on each the bit with the * 
it only plays one on it
e |--11-9-11-9*----9--|
B |-------------12----|
G |-------------------|
D |-------------------|
A |-------------------|
E |-------------------|

Structure

Intro
Verse
Chorus
Bridge
Verse
Chorus x2
Verse but only plays it twice

4. Had Enough

Intro
e |-----------------------|
B |-----------------------|
G |-----------------------|
D |--66--66--66-99-88-44--| [x2]
A |--66--66--66-99-88-44--|
E |--44--44--44-77-66-22--|

e |--11[x16]-14[x16]-13[x16]-9[x8]-11[x8]--|
B |----------------------------------------|
G |----------------------------------------|
D |----------------------------------------|
A |----------------------------------------|
E |----------------------------------------|

Verse
e |-----------------------|
B |-----------------------|
G |-----------------------|
D |--66--66--66-99-88-44--| [x4]
A |--66--66--66-99-88-44--|
E |--44--44--44-77-66-22--|

Chorus
e |-------------------------------------------------------------------------|
B |-------------------------------------------------------------------------|
G |-------------------------------------------------------------------------|
D |--6-66-6-6-6-66-6-6-9-99-9-9-9-99-9-9-8-88-8-8-8-88-8-8-6-66-6-6-6-66-6--|
A |--6-66-6-6-6-66-6-6-9-99-9-9-9-99-9-9-8-88-8-8-8-88-8-8-6-66-6-6-6-66-6--|
E |--4-44-4-4-4-44-4-4-7-77-7-7-7-77-7-7-6-66-6-6-6-66-6-6-4-44-4-4-4-44-4--|

e |----------------------------------------------------------------|
B |--9[x12]-11[x4]--9[x12]-11[x4]--12[x12]-14[x4]--12[x12]-14[x4]--|
G |----------------------------------------------------------------|
D |----------------------------------------------------------------|
A |----------------------------------------------------------------|
E |----------------------------------------------------------------|

Bridge

[Chord bit]

This bit there are lots of notes so I couldn't count how many there were but I've got 
different changes down so you'll have to figure out how many on each the bit with the * 
it only plays one on it
e |--11-9-11-9*----9--|
B |-------------12----|
G |-------------------|
D |-------------------|
A |-------------------|
E |-------------------|

Structure

Intro
Verse
Chorus
Bridge
Verse
Chorus x2
Verse but only plays it twice

5. We'll Live & Die in These Towns

Intro
~~~~~~

|-3---------|
|-2----3----|
|-0-x4-2-x4-|   repeat over and over
|-0----0----|
|-0----3----|
|-3----0----|

Verse
~~~~~~

|-2---------|
|-2----3----|
|-4-x4-2-x4-| repeat 4 times
|-4----0----|
|-3----3----|
|-2----0----|

|-----------2--------------2---------|
|-3----0----2----3----0----2----3----|
|-2-x4-0-x4-4-x4-2-x4-0-x4-4-x4-2-x4-|
|-0----2----4----0----2----4----0----|
|-3----3----3----3----3----3----3----|
|-0----2----2----0----2----2----0----|

|----------------------|
|-3------3------3------|
|-2-let--2-let--2-let--|
|-0-ring-0-ring-0-ring-|
|-3------3------3------|
|-0------0------0------|

|-----------|
|-3----0----|
|-2-x4-0-x4-|
|-0----2----|
|-3----3----|
|-0----2----|

Chorus
~~~~~~

|-3---------2---------|
|-2----0----2----3----|
|-0-x4-0-x4-4-x4-2-x4-|
|-0----2----4----0----|
|-0----3----3----3----|
|-3----2----2----0----|

|-----------2---------|
|-3----0----2----3----|
|-2-x4-0-x4-4-x4-2-x4-|
|-0----2----4----0----|
|-3----3----3----3----|
|-0----2----2----0----|

|-3---------2---------|
|-2----0----2----3----|
|-0-x4-0-x4-4-x4-2-x4-|
|-0----2----4----0----|
|-0----3----3----3----|
|-3----2----2----0----|

|-----------2---------|
|-3----0----2----3----|
|-2-x4-0-x4-4-x4-2-x4-|
|-0----2----4----0----|
|-3----3----3----3----|
|-0----2----2----0----|

Verse 2
~~~~~~~

|-2---------|
|-2----3----|
|-4-x4-2-x4-| repeat 4 times
|-4----0----|
|-3----3----|
|-2----0----|

|-----------2--------------2---------|
|-3----0----2----3----0----2----3----|
|-2-x4-0-x4-4-x4-2-x4-0-x4-4-x4-2-x4-|
|-0----2----4----0----2----4----0----|
|-3----3----3----3----3----3----3----|
|-0----2----2----0----2----2----0----|

|----------------------|
|-3------3------3------|
|-2-let--2-let--2-let--|
|-0-ring-0-ring-0-ring-|
|-3------3------3------|
|-0------0------0------|

|-----------|
|-3----0----|
|-2-x4-0-x4-|
|-0----2----|
|-3----3----|
|-0----2----|

Chorus 2
~~~~~~~~


|-3---------2---------|
|-2----0----2----3----|
|-0-x4-0-x4-4-x4-2-x4-|
|-0----2----4----0----|
|-0----3----3----3----|
|-3----2----2----0----|

|-----------2---------|
|-3----0----2----3----|
|-2-x4-0-x4-4-x4-2-x4-|
|-0----2----4----0----|
|-3----3----3----3----|
|-0----2----2----0----|

|-3---------2---------|
|-2----0----2----3----|
|-0-x4-0-x4-4-x4-2-x4-|
|-0----2----4----0----|
|-0----3----3----3----|
|-3----2----2----0----|

|-----------2---------|
|-3----0----2----3----|
|-2-x4-0-x4-4-x4-2-x4-|
|-0----2----4----0----|
|-3----3----3----3----|
|-0----2----2----0----|

¦Pause¦

 (Well nooooooooooooooooooooow, Well nooooooooooooooooooow)

Chorus
~~~~~~

|-3---------2---------|
|-2----0----2----3----|
|-0-x4-0-x4-4-x4-2-x4-|
|-0----2----4----0----|
|-0----3----3----3----|
|-3----2----2----0----|

|-----------2---------|
|-3----0----2----3----|
|-2-x4-0-x4-4-x4-2-x4-|
|-0----2----4----0----|
|-3----3----3----3----|
|-0----2----2----0----|

|-3---------2---------|
|-2----0----2----3----|
|-0-x4-0-x4-4-x4-2-x4-|
|-0----2----4----0----|
|-0----3----3----3----|
|-3----2----2----0----|

|-----------2---------|
|-3----0----2----3----|
|-2-x4-0-x4-4-x4-2-x4-|
|-0----2----4----0----|
|-3----3----3----3----|
|-0----2----2----0----|


6. You're Not Alone

INTRO

Guitar 1

e|-------------------------------------------------|
B|-------------------------------------------------|
G|--11-11-11-11-11-11-11-11-11-11-11-11-16-16-15---|
D|--x--x--x--x--x--x--x--x--x--x--x--x--x--x--x----|
A|--9--9--9--9--9--9--9--9--9--9--9--9--14-14-13---|
E|-------------------------------------------------|


Guitar 2

e|------|
B|------|
G|------|
D|--4---|  Play for the whole of the intro
A|--4---|
E|--2---|
PM  .


VERSE

e|--------------------------------------------------------------------|
B|--------------------------------------------------------------------|
G|--------------------------------------8-----8---8-----8-----8---8---|
D|------4-----4---4-----4-----4---4-8-8-8-8-8-8-8-8-8-8-8-8-8-8-8-8---|
A|--4-4-4-4-4-4-4-4-4-4-4-4-4-4-4-4-6-6-6-6-6-6-6-6-6-6-6-6-6-6-6-6---|
E|--2-2-2-2-2-2-2-2-2-2-2-2-2-2-2-2-----------------------------------|
PM  . . . . . . . . . . . . . . . . . . . . . . . . . . . . . . . .

e|--------------------------------------------------------------------|
B|--------------------------------------------------------------------|
G|------4-----4---4-----4-----4---4-----------------------------------|
D|--4-4-4-4-4-4-4-4-4-4-4-4-4-4-4-4-----4-----4---4---3-3-3-3-3-3-3---|
A|--2-2-2-2-2-2-2-2-2-2-2-2-2-2-2-2-4-4-4-4-4-4-4-4-4-4-4-4-4-4-4-4---|
E|----------------------------------2-2-2-2-2-2-2-2-2-1-1-1-1-1-1-1---|
PM  . . . . . . . . . . . . . . . . . . . . . . . . . . . . . . . .
PRECHORUS

Guitar 1 (I'm not sure you need to play this or whether its actually played but it 
good if your using two guitarists, could be played an octave lower)

e|----------------------------------------------------------|
B|----------------------------------------------------------|
G|--16-----11-----16-----11-----16-----11-----20-----18-----|
D|--x--x8--x--x8--x--x8--x--x8--x--x8--x--x8--x--x8--x--x8--|
A|--14-----9------14-----9------11-----9------18-----16-----|
E|----------------------------------------------------------|


Guitar 2

e|--------------------------------------------------|
B|--------------------------------------------------|
G|--4-----------4-----------4-----------8-----6-----|
D|--4-x8--4-----4-x8--4-----4-x8--4-----8-x8--6-x8--|
A|--2-----4-x8--2-----4-x8--2-----4-x8--6-----4-----|
E|--------2-----------2-----------2-----------------|


CHORUS

Guitar 1 (Again dunno if you need to play this)

e|------------------------------|
B|------------------------------|
G|--16-----11-----20-----18-----|
D|--x--x8--x--x8--x--x8--x--x8--|
A|--14-----9------18-----16-----|
E|------------------------------|


Guitar 2

e|--------------------------|
B|--------------------------|
G|--4-----------8-----6-----|
D|--4-x8--4-----8-x8--6-x8--|
A|--2-----4-x8--6-----4-----|
E|--------2-----------------|


BRIDGE

Guitar 1

e|-------------------------------------------|
B|--------------------------------12-11-12---|
G|--11--11--11-11-11-11--11-11-11-11-11-11---|
D|--x---x---x--x--x--x---x--x--x--x--x--x----|
A|--9---9---9--9--9--9---9--9--9--9--9--9----|
E|-------------------------------------------|


Guitar 2

e|------|
B|------|
G|------|
D|--4---|  Play for the whole of the preverse
A|--4---|
E|--2---|
PM  .


SOLO Part 1

Guitar 1

e|-----------------------------------------------------------------------|
B|-----------------------------------------------------------------------|
G|--13-13-13-11--11-11-11-10-10-10-11--11-11-11-8--8--8--8--8--8--8--8---|
D|--x--x--x--x---x--x--x--x--x--x--x---x--x--x--x--x--x--x--x--x--x--x---|
A|--11-11-11-9---9--9--9--8--8--8--9---9--9--9--6--6--6--6--6--6--6--6---|
E|-----------------------------------------------------------------------|

e|---------------------------|
B|---------------------------|
G|--6--6--6--6--6--6--6--6---|
D|--x--x--x--x--x--x--x--x---|
A|--4--4--4--4--4--4--4--4---|
E|---------------------------|

Solo Part 2

e|-----------------------------------------------------------------------|
B|-----------------------------------------------------------------------|
G|--13-13-13-11--11-11-11-10-10-10-11--11-11-11-8--8--8--8--8--8--8--8---|
D|--x--x--x--x---x--x--x--x--x--x--x---x--x--x--x--x--x--x--x--x--x--x---|
A|--11-11-11-9---9--9--9--8--8--8--9---9--9--9--6--6--6--6--6--6--6--6---|
E|-----------------------------------------------------------------------|

e|---------------------------|
B|---------------------------|
G|--10-10-10-10-10-10-10-10--|
D|--x--x--x--x--x--x--x--x---|
A|--8--8--8--8--8--8--8--8---|
E|---------------------------|

Guitar 2 - for both solo parts same as chorus


SONG STRUCTURE

Intro        x 4
Verse        x 2
Prechorus    x 2
Chorus       x 2
Bridge       x 2
Verse        x 2
Prechorus    x 2
Chorus       x 2
Solo Part 2  x 1
Solo Part 1  x 1
Chorus       x 2
Solo Part 1  x 1
Solo Part 2  x 1
Solo Part 1  x 1
Solo Part 2  x 1

Finish on:

Guitar 1

e|------|
B|------|
G|--11--|
D|--x---|
A|--9---|
E|------|

Guitar 2

e|-----|
B|-----|
G|-----|
D|--4--|
A|--4--|
E|--2--|


7. It's Not OK


INTRO
E|----------------------------------------------------|
B|----------------------------------------------------|
G|---15-15-15-15-15-15-15-15-15-15-15-15-15-15-15-15--|
D|---x—-x--x--x--x--x--x--x--x--x--x--x--x--x--x--x---|
A|---13-13-13-13-13-13-13-13-13-13-13-13-13-13-13-13--|
E|----------------------------------------------------|

E|------------------------------------------------|
B|------------------------------------------------|
G|--16-16-16-16-16-16-16-16-18-18-18-18-16-16-16--|
D|--x--x--x--x--x--x--x--x—-x—-x--x--x--x--x--x---|
A|--14-14-14-14-14-14-14-14-16-16-16-16-14-14-14--|
E|------------------------------------------------|

E|------------------------------------------|
B|------------------------------------------|
G|--15-15-15-15-15-16-18-15-15-15-16-15-11--|
D|--x--x--x--x--x--x--x--x—-x—-x--x--x--x---|
A|--13-13-13-13-13-14-16-13-13-13-14-13-9---|
E|------------------------------------------|

E|-------------------------------------------|
B|-------------------------------------------|
G|--9-9-9-9-9-9-9-11-11-11-11-11-11-11-11-11-|  let
D|--x-x-x-x-x-x-x-x—-x--x--x--x--x--x--x--x—-|  ring
A|--7-7-7-7-7-7-7-9--9—-9—-9--9--9--9--9—-9--|
E|-------------------------------------------|

VERSE 1
Don’t play until after the first four lines

00:27
E|------|
B|------|
G|---11-| play this chord
D|---x—-| constantly
A|---9--|
E|------|

PRE CHORUS 00:39
E|-------------------------------------------|
B|-------------------------------------------|
G|--11-11-11--11-11-11--11-11-11—-11-11-11---|
D|--x—-x—-x---x--x--x---x--x--x—--x--x--x----|
A|--9--9--9—--9—-9--9---9--9--9—--9--9--9----|
E|-------------------------------------------|

E|---------------------------------------------------|
B|---------------------------------------------------|
G|--16-16-16-16-16-16-16-16-15-15-15-15-11-11-11-11--|
D|--x--x--x--x--x--x—-x—-x--x--x--x--x--x--x—-x—-x---|
A|--14-14-14-14-14-14-14-14-13—13—13-13-9--9--9—-9---|
E|---------------------------------------------------| x2

E|---------------------------------------------------|
B|---------------------------------------------------|
G|--11-11-11-11-11-11-11-11-10-10-10-10-6-6-6-6------|
D|--x--x--x--x--x--x—-x—-x--x--x--x--x--x-x-x-x------|
A|--9--9--9--9--9--9--9--9--8—-8—-8--8--4-4-4—4------|
E|---------------------------------------------------| x2
Repeat the last two bars again

CHORUS 01:05
E|-----------------------------------|
B|-----------------------------------|
G|--6-6-6-6-6-6-6-6-8-8-8-8-8-8-8-8--|
D|--x-x-x-x-x-x-x-x-x-x-x-x-x-x-x-x--|
A|--4-4-4-4-4-4-4-4-6—6—6-6-6-6-6—6--|
E|-----------------------------------|

E|---------------------------------------------------|
B|---------------------------------------------------|
G|--10-10-10-10-10-10-10-10-13-13-13-13-13-13-13-13--|
D|--x--x--x--x--x--x—-x—-x--x--x--x--x--x--x—-x—-x---|
A|--8--8--8--8--8--8--8--8--11—11—11-11-11-11-11—11--|
E|---------------------------------------------------|

E|----------------------------------------------------|
B|----------------------------------------------------|
G|--11-11-11-11-11-11-11-11-11-11-11-11-11-11-11-11---|
D|--x--x--x--x--x--x—-x—-x--x--x--x--x--x--x—-x—-x----|
A|--9--9--9--9--9--9--9--9--9—-9—-9--9--9--9--9—-9----|
E|----------------------------------------------------|

E|-----------------------------------|
B|-----------------------------------|
G|--9-9-9-9-9-9-9-9-8-8-8-8-8-9-9-11-| let ring
D|--x-x-x-x-x-x-x-x-x-x-x-x-x-x-x-x--|
A|--7-7-7-7-7-7-7-7-6—6—6-6-6-7-7—9--|
E|-----------------------------------|

REPEAT VERSE, PRECHORUS AND CHORUS AGAIN

Solo/bridge 02:21
E|------------------------------------------|
B|------------------------------------------|
G|------------9-9-9-9-9-8-------------------|
D|-8-8-8-9-11-------------9--9-9-11-9-------|
A|------------------------------------------|
E|------------------------------------------|

E|------------------------------------------|
B|------------------------------------------|
G|------------------------------------------|
D|-8-8-8-9-11-9-8---------------------------|
A|----------------9-7-7-7-7-7-9-9-9-9-9-----|
E|------------------------------------------|

PRE CHORUS 02:34

CHORUS 2 03:00
E|-----------------------------------|
B|-----------------------------------|
G|--6-6-6-6-6-6-6-6-8-8-8-8-8-8-8-8--|
D|--x-x-x-x-x-x-x-x-x-x-x-x-x-x-x-x--|
A|--4-4-4-4-4-4-4-4-6—6—6-6-6-6-6—6--|
E|-----------------------------------|

E|---------------------------------------------------|
B|---------------------------------------------------|
G|--10-10-10-10-10-10-10-10-13-13-13-13-13-13-13-13--|
D|--x--x--x--x--x--x—-x—-x--x--x--x--x--x--x—-x—-x---|
A|--8--8--8--8--8--8--8--8--11—11—11-11-11-11-11—11--|
E|---------------------------------------------------|

E|---------------------------------------------------|
B|---------------------------------------------------|
G|--13-13-13-13-13-13-13-13-15-15-15-15-15-15-15-15--|
D|--x--x--x--x--x--x—-x—-x--x--x--x--x--x--x--x--x---|
A|--11—11—11-11-11-11-11—11-13-13-13-13-13-13-13-13--|
E|---------------------------------------------------|

E|---------------------------------------------------|
B|---------------------------------------------------|
G|--16-16-16-16-16-16-16-16-18-18-18-18-18-18-18-18--|
D|--x--x--x--x--x—-x--x--x--x--x--x--x--x--x--x--x---|
A|--14—14—14-14-14-14-14—14-16-16-16-16-16-16-16-16--|
E|---------------------------------------------------|

03:11
E|---------------------------------------------------|
B|---------------------------------------------------|
G|--11-11-11-11-11-11-11-11-11-11-11-11-11-11-11-11--|
D|--x--x--x--x--x--x—-x—-x--x--x--x--x--x--x—-x—-x---|
A|--9--9--9--9--9--9--9--9--9—-9—-9--9--9--9--9—-9---|
E|---------------------------------------------------|

E|-----------------------------------|
B|-----------------------------------|
G|--9-9-9-9-9-9-9-9-8-8-8-8-8-9-9-11-|
D|--x-x-x-x-x-x-x-x-x-x-x-x-x-x-x-x--|   x2
A|--7-7-7-7-7-7-7-7-6—6—6-6-6-7-7—9--|
E|-----------------------------------|


Song structure
INTRO
VERSE
PRE-CHORUS
CHORUS
VERSE
PRE-CHORUS
CHORUS
SOLO/BRIDGE
PRECHORUS
CHORUS 2

8. Technodanceaphobic

INTRO
E|----------------------------------------------------|
B|----------------------------------------------------|
G|---15-15-15-15-15-15-15-15-15-15-15-15-15-15-15-15--|
D|---x—-x--x--x--x--x--x--x--x--x--x--x--x--x--x--x---|
A|---13-13-13-13-13-13-13-13-13-13-13-13-13-13-13-13--|
E|----------------------------------------------------|

E|------------------------------------------------|
B|------------------------------------------------|
G|--16-16-16-16-16-16-16-16-18-18-18-18-16-16-16--|
D|--x--x--x--x--x--x--x--x—-x—-x--x--x--x--x--x---|
A|--14-14-14-14-14-14-14-14-16-16-16-16-14-14-14--|
E|------------------------------------------------|

E|------------------------------------------|
B|------------------------------------------|
G|--15-15-15-15-15-16-18-15-15-15-16-15-11--|
D|--x--x--x--x--x--x--x--x—-x—-x--x--x--x---|
A|--13-13-13-13-13-14-16-13-13-13-14-13-9---|
E|------------------------------------------|

E|-------------------------------------------|
B|-------------------------------------------|
G|--9-9-9-9-9-9-9-11-11-11-11-11-11-11-11-11-|  let
D|--x-x-x-x-x-x-x-x—-x--x--x--x--x--x--x--x—-|  ring
A|--7-7-7-7-7-7-7-9--9—-9—-9--9--9--9--9—-9--|
E|-------------------------------------------|

VERSE 1
Don’t play until after the first four lines

00:27
E|------|
B|------|
G|---11-| play this chord
D|---x—-| constantly
A|---9--|
E|------|

PRE CHORUS 00:39
E|-------------------------------------------|
B|-------------------------------------------|
G|--11-11-11--11-11-11--11-11-11—-11-11-11---|
D|--x—-x—-x---x--x--x---x--x--x—--x--x--x----|
A|--9--9--9—--9—-9--9---9--9--9—--9--9--9----|
E|-------------------------------------------|

E|---------------------------------------------------|
B|---------------------------------------------------|
G|--16-16-16-16-16-16-16-16-15-15-15-15-11-11-11-11--|
D|--x--x--x--x--x--x—-x—-x--x--x--x--x--x--x—-x—-x---|
A|--14-14-14-14-14-14-14-14-13—13—13-13-9--9--9—-9---|
E|---------------------------------------------------| x2

E|---------------------------------------------------|
B|---------------------------------------------------|
G|--11-11-11-11-11-11-11-11-10-10-10-10-6-6-6-6------|
D|--x--x--x--x--x--x—-x—-x--x--x--x--x--x-x-x-x------|
A|--9--9--9--9--9--9--9--9--8—-8—-8--8--4-4-4—4------|
E|---------------------------------------------------| x2
Repeat the last two bars again

CHORUS 01:05
E|-----------------------------------|
B|-----------------------------------|
G|--6-6-6-6-6-6-6-6-8-8-8-8-8-8-8-8--|
D|--x-x-x-x-x-x-x-x-x-x-x-x-x-x-x-x--|
A|--4-4-4-4-4-4-4-4-6—6—6-6-6-6-6—6--|
E|-----------------------------------|

E|---------------------------------------------------|
B|---------------------------------------------------|
G|--10-10-10-10-10-10-10-10-13-13-13-13-13-13-13-13--|
D|--x--x--x--x--x--x—-x—-x--x--x--x--x--x--x—-x—-x---|
A|--8--8--8--8--8--8--8--8--11—11—11-11-11-11-11—11--|
E|---------------------------------------------------|

E|----------------------------------------------------|
B|----------------------------------------------------|
G|--11-11-11-11-11-11-11-11-11-11-11-11-11-11-11-11---|
D|--x--x--x--x--x--x—-x—-x--x--x--x--x--x--x—-x—-x----|
A|--9--9--9--9--9--9--9--9--9—-9—-9--9--9--9--9—-9----|
E|----------------------------------------------------|

E|-----------------------------------|
B|-----------------------------------|
G|--9-9-9-9-9-9-9-9-8-8-8-8-8-9-9-11-| let ring
D|--x-x-x-x-x-x-x-x-x-x-x-x-x-x-x-x--|
A|--7-7-7-7-7-7-7-7-6—6—6-6-6-7-7—9--|
E|-----------------------------------|

REPEAT VERSE, PRECHORUS AND CHORUS AGAIN

Solo/bridge 02:21
E|------------------------------------------|
B|------------------------------------------|
G|------------9-9-9-9-9-8-------------------|
D|-8-8-8-9-11-------------9--9-9-11-9-------|
A|------------------------------------------|
E|------------------------------------------|

E|------------------------------------------|
B|------------------------------------------|
G|------------------------------------------|
D|-8-8-8-9-11-9-8---------------------------|
A|----------------9-7-7-7-7-7-9-9-9-9-9-----|
E|------------------------------------------|

PRE CHORUS 02:34

CHORUS 2 03:00
E|-----------------------------------|
B|-----------------------------------|
G|--6-6-6-6-6-6-6-6-8-8-8-8-8-8-8-8--|
D|--x-x-x-x-x-x-x-x-x-x-x-x-x-x-x-x--|
A|--4-4-4-4-4-4-4-4-6—6—6-6-6-6-6—6--|
E|-----------------------------------|

E|---------------------------------------------------|
B|---------------------------------------------------|
G|--10-10-10-10-10-10-10-10-13-13-13-13-13-13-13-13--|
D|--x--x--x--x--x--x—-x—-x--x--x--x--x--x--x—-x—-x---|
A|--8--8--8--8--8--8--8--8--11—11—11-11-11-11-11—11--|
E|---------------------------------------------------|

E|---------------------------------------------------|
B|---------------------------------------------------|
G|--13-13-13-13-13-13-13-13-15-15-15-15-15-15-15-15--|
D|--x--x--x--x--x--x—-x—-x--x--x--x--x--x--x--x--x---|
A|--11—11—11-11-11-11-11—11-13-13-13-13-13-13-13-13--|
E|---------------------------------------------------|

E|---------------------------------------------------|
B|---------------------------------------------------|
G|--16-16-16-16-16-16-16-16-18-18-18-18-18-18-18-18--|
D|--x--x--x--x--x—-x--x--x--x--x--x--x--x--x--x--x---|
A|--14—14—14-14-14-14-14—14-16-16-16-16-16-16-16-16--|
E|---------------------------------------------------|

03:11
E|---------------------------------------------------|
B|---------------------------------------------------|
G|--11-11-11-11-11-11-11-11-11-11-11-11-11-11-11-11--|
D|--x--x--x--x--x--x—-x—-x--x--x--x--x--x--x—-x—-x---|
A|--9--9--9--9--9--9--9--9--9—-9—-9--9--9--9--9—-9---|
E|---------------------------------------------------|

E|-----------------------------------|
B|-----------------------------------|
G|--9-9-9-9-9-9-9-9-8-8-8-8-8-9-9-11-|
D|--x-x-x-x-x-x-x-x-x-x-x-x-x-x-x-x--|   x2
A|--7-7-7-7-7-7-7-7-6—6—6-6-6-7-7—9--|
E|-----------------------------------|


Song structure
INTRO
VERSE
PRE-CHORUS
CHORUS
VERSE
PRE-CHORUS
CHORUS
SOLO/BRIDGE
PRECHORUS
CHORUS 2

9. 40 Days & 40 Nights

Intro
 ]------|
 ]------|
 ]------| x16
 ]--11--|
 ]------|
 ]------|

 ]------|
 ]------|
 ]--12--| x16
 ]------|
 ]------|
 ]------|

 ]------|
 ]------|
 ]--11--| x16
 ]------|
 ]------|
 ]------|

 ]------|
 ]------|
 ]------| x16
 ]--11--|
 ]------|
 ]------|

Verse
 ]----------------------------------------------------------------|
 ]----------------------------------------------------------------|
 ]--66-66-66-66-------------1111-1111-1111-1111-66-66-66-66-------|
 ]--66-66-66-66-77-77-77-77-1111-1111-1111-1111-66-66-66-66-------|
 ]--44-44-44-44-77-77-77-77-9-9--9-9--9-9--9-9--44-44-44-44-------|
 ]--------------55-55-55-55---------------------------------------|

 ]----------------------------------------------------------------|
 ]----------------------------------------------------------------|
 ]--66-66-66-66-------------1111-1111-1111-1111-66666666----------|
 ]--66-66-66-66-77-77-77-77-1111-1111-1111-1111-66666666----------|
 ]--44-44-44-44-77-77-77-77-9-9--9-9--9-9--9-9--44444444----------|
 ]--------------55-55-55-55---------------------------------------|

Pre-Chorus
 ]----------------------------------------------------------------|
 ]----------------------------------------------------------------|
 ]----------------------------------------------------------------|
 ]----------------------------------------------------------------|
 ]----------------------------------------------------------------|
 ]-7-8-9-7-8-9-7-8-9-7-8-9-7-8-9-0-1-2-0-1-2-0-1-2-0-1-2-0-1-2----|

Chorus
 ]----------------------------------------------------------------|
 ]----------------------------------------------------------------|
 ]---66666666-----------------------------------------------------| x4
 ]---66666666-77777777--------------------------------------------|
 ]---44444444-77777777--------------------------------------------|
 ]------------55555555--------------------------------------------|

10. This Song

Inro/Verses/Link:
just keep repeating these notes

e|------------------------------------------------------|
B|------------------------------------------------------|
G|------------------------------------------------------|
D|-6---11-----------------------------------------------|
A|-4x8-9-x8---------------------------------------------|
E|------------------------------------------------------|

Pre-Chorus:
play this twice

e|-------------------------------------------------------|
B|-------------------------------------------------------|
G|-------------------------------------------------------|
D|---------6---11----------------------------------------|
A|-6---4---4x8-9x8---------------------------------------|
E|-4x8-2x8-----------------------------------------------|

Chorus:
I'm not sure if the timing's right

e|--------------------------------------------------------|
B|--------------------------------------------------------|
G|--------------------------------------------------------|
D|-6---------------6--------------------------------------|
A|-4x8-6---9---4---4x8-6---4---4--------------------------|
E|-----4x8-7x8-2x8-----4x8-2x8-2x8------------------------|

Outro:
I don't know the timing for the outro you'll have to work it out for yourself

e|---------------------------------------------------------|
B|---------------------------------------------------------|
G|---------------------------------------------------------|
D|-6-------------------------------------------------------|
A|-4-6-4---------------------------------------------------|
E|---4-2---------------------------------------------------|

Order:
Intro
Verse 1
Pre-Chorus
Chorus
Link
Verse 2
Pre-Chorus
Chorus
Outro


11. Happy Birthday Jane


INTRO

     G#          Cm              G#              Cm
e|-----4-----------------3---------------4---------------3------|
B|-------4-----------4-----4---------------4---------4-----4----|
G|---------5-----------5-------------5-----------------5--------|
D|-----------------5-------------------6-----------5------------|
A|---------------3-----------------6-------------3--------------|
E|---4---------------------------4------------------------------|

VERSE

Good morning jane, happy birthday once again
so what would we do, what would we do without you

     G#           Cm             G#               Cm
e|-----------4------------3--------------4---------------3------|
B|-------------4------4-----4--------------4---------4-----4----|
G|-------5--------------5------------5-----------------5--------|
D|---------6--------5------------------6-----------5------------|
A|-----6----------3----------------6-------------3--------------|
E|---4---------------------------4------------------------------| x2

PRECHORUS

           Cm  Bm  Bbm
without you

Bbm                C#       D#             G#
Wake up the sun is shining, shining for you

CHORUS

Cm               C#       Cm                   G#
to take all your troubles away, just for a day

Cm               C#       Cm
to take all your troubles away, just for a day

Bbm       C#  Cm  G#
day, for a day

BRIDGE
G#    Cm   C#   G#

G#              Cm              C#              Cm             G#
happy birthday, happy birthday, happy birthday, happy birthday jane




well anyway hope that helps!
gaz

            
            
Suggest correction
Creating personal tab
Creating personal tab
You can edit any tab online and save it as your Personal.

You can edit, replace or remove any tab part or add personal notes – all changes will be seen only by you.

Personal tabs can be accessed anytime from any device, even offline.
Learn more »
comments
print report bad tab
1 comment total.
0 reply
guitarherolol 60 Nov 09, 2008 05:04 AM

WTF? The beginning of had enough is pressure on your tab

guest
You may want to rate the tab now too:
select rating
Wanna post a correction for this tab? Suggest correction