Oops, an error
Loading. Please wait.

Well Live And Die In These Towns Tab

version 1
version 1

Whole song

6,694 views 1 this week
1 commentread comment
1 2 3 4 5
2 more votes to show rating
add to favorites
launch autoscroll
font size
0
reset
how to read this tab
guitar tuner
Autoscroll
slow
fast
+/-
esc
set tempo
stop
Help us to improve Ultimate-Guitar.com Take our survey!
×
Author
We'll live and die in these towns-The Enemy
tuning - standard (eadgbe)
Update:-
7th Feb 2008: I've now realised that its only 99.9% correct to use you will have to 
off all the chords the other way up
eg.|-1-|                   |-6-|
   |-2-|                   |-5-|
   |-3-| this will now be  |-4-|
   |-4-|                   |-3-|
   |-5-|                   |-2-|
   |-6-|                   |-1-|

sorry people

Capo on 4th fret needed

Intro
~~~~~~

|-3---------|
|-2----3----|
|-0-x4-2-x4-|   repeat over and over
|-0----0----|
|-0----3----|
|-3----0----|

Verse
~~~~~~

|-2---------|
|-2----3----|
|-4-x4-2-x4-| repeat 4 times
|-4----0----|
|-3----3----|
|-2----0----|

|-----------2--------------2---------|
|-3----0----2----3----0----2----3----|
|-2-x4-0-x4-4-x4-2-x4-0-x4-4-x4-2-x4-|
|-0----2----4----0----2----4----0----|
|-3----3----3----3----3----3----3----|
|-0----2----2----0----2----2----0----|

|----------------------|
|-3------3------3------|
|-2-let--2-let--2-let--|
|-0-ring-0-ring-0-ring-|
|-3------3------3------|
|-0------0------0------|

|-----------|
|-3----0----|
|-2-x4-0-x4-|
|-0----2----|
|-3----3----|
|-0----2----|

Chorus
~~~~~~

|-3---------2---------|
|-2----0----2----3----|
|-0-x4-0-x4-4-x4-2-x4-|
|-0----2----4----0----|
|-0----3----3----3----|
|-3----2----2----0----|

|-----------2---------|
|-3----0----2----3----|
|-2-x4-0-x4-4-x4-2-x4-|
|-0----2----4----0----|
|-3----3----3----3----|
|-0----2----2----0----|

|-3---------2---------|
|-2----0----2----3----|
|-0-x4-0-x4-4-x4-2-x4-|
|-0----2----4----0----|
|-0----3----3----3----|
|-3----2----2----0----|

|-----------2---------|
|-3----0----2----3----|
|-2-x4-0-x4-4-x4-2-x4-|
|-0----2----4----0----|
|-3----3----3----3----|
|-0----2----2----0----|

Verse 2
~~~~~~~

|-2---------|
|-2----3----|
|-4-x4-2-x4-| repeat 4 times
|-4----0----|
|-3----3----|
|-2----0----|

|-----------2--------------2---------|
|-3----0----2----3----0----2----3----|
|-2-x4-0-x4-4-x4-2-x4-0-x4-4-x4-2-x4-|
|-0----2----4----0----2----4----0----|
|-3----3----3----3----3----3----3----|
|-0----2----2----0----2----2----0----|

|----------------------|
|-3------3------3------|
|-2-let--2-let--2-let--|
|-0-ring-0-ring-0-ring-|
|-3------3------3------|
|-0------0------0------|

|-----------|
|-3----0----|
|-2-x4-0-x4-|
|-0----2----|
|-3----3----|
|-0----2----|

Chorus 2
~~~~~~~~


|-3---------2---------|
|-2----0----2----3----|
|-0-x4-0-x4-4-x4-2-x4-|
|-0----2----4----0----|
|-0----3----3----3----|
|-3----2----2----0----|

|-----------2---------|
|-3----0----2----3----|
|-2-x4-0-x4-4-x4-2-x4-|
|-0----2----4----0----|
|-3----3----3----3----|
|-0----2----2----0----|

|-3---------2---------|
|-2----0----2----3----|
|-0-x4-0-x4-4-x4-2-x4-|
|-0----2----4----0----|
|-0----3----3----3----|
|-3----2----2----0----|

|-----------2---------|
|-3----0----2----3----|
|-2-x4-0-x4-4-x4-2-x4-|
|-0----2----4----0----|
|-3----3----3----3----|
|-0----2----2----0----|

¦Pause¦

 (Well nooooooooooooooooooooow, Well nooooooooooooooooooow)

Chorus
~~~~~~

|-3---------2---------|
|-2----0----2----3----|
|-0-x4-0-x4-4-x4-2-x4-|
|-0----2----4----0----|
|-0----3----3----3----|
|-3----2----2----0----|

|-----------2---------|
|-3----0----2----3----|
|-2-x4-0-x4-4-x4-2-x4-|
|-0----2----4----0----|
|-3----3----3----3----|
|-0----2----2----0----|

|-3---------2---------|
|-2----0----2----3----|
|-0-x4-0-x4-4-x4-2-x4-|
|-0----2----4----0----|
|-0----3----3----3----|
|-3----2----2----0----|

|-----------2---------|
|-3----0----2----3----|
|-2-x4-0-x4-4-x4-2-x4-|
|-0----2----4----0----|
|-3----3----3----3----|
|-0----2----2----0----|


i am 100% sure this is correct if there are allterations u would like to make email me on
darvellr_12@msn.com
Suggest correction
Give kudos to tab author, rate the tab!
1 2 3 4 5
comments
print report bad tab
1 comment total.
0 reply
james-fletcher 10 Jun 13, 2008 05:14 PM

completely wrong you need a capo for it ( on 4th )

guest
You may want to rate the tab now too:
select rating
Wanna post a correction for this tab? Suggest correction