Oops, an error
Loading. Please wait.

Well Live And Die In These Towns Bass Tab

version 2
version 2

Whole song

3,236 views 3 this week
no commentswrite comment
1 2 3 4 5
x 3
add to favorites
launch autoscroll
font size
0
reset
guitar tuner
Autoscroll
slow
fast
+/-
esc
set tempo
stop
Help us to improve Ultimate-Guitar.com Take our survey!
×
Author
Difficulty
novice
Tabbed By : J.J.Jolly

Intro

G|-------------------------------------------------------------------------|
D|---9---9---9---9---------------------------------------------------------|
A|-------------------------------------------------------------------------|
E|-7---7---7---7-----------------------------------------------------------|

Intro/Verse

G|------------------------------------------------------------------------------------------|
D|----9---9-6-----------------------------------------------------8-8-8-8-9999999999999999--|
A|------------9-6-----------9-9-9-9-7-7-7-9-9-7-7-7-9-11-11-11-11---------------------------|
E|-7----7---------9-7-7-7-7-----------------------------------------------------------------|

Verse 1

G|-------------------------------------------------------------------------|
D|-------------------------------------------------------------------------|
A|-666-6666-777-7777-666-6666-777-7777-666-6666-777-7777-666-6666-777-7777-|
E|-------------------------------------------------------------------------|

Verse 2

G|-------------------------------------------------------------------------|
D|-------------------------------------------------------------------------|
A|-777-7777-999-9999-666-6666-777-7777-777-7777-999-9999-666-6666-777-7777-|
E|-------------------------------------------------------------------------|

Bridge

G|-------------------------------------------------------------------------|
D|-------------------------------------------------------------------------|
A|-------------------------------------------------------------------------|
E|-777777777777777777777777-99999999---------------------------------------|

Chorus

G|---------------------------------------------------------------------------|
D|-----------------------------------------------8-8-8-8-9999999999999999----|
A|---------9-9-9-9-7-7-7-9-9-7-7-7-9-11-11-11-11-----------------------------|
E|-7-7-7-7-------------------------------------------------------------------|

Thats It, Just Do It In Order And How Many Time You Need To Do It!

Enjoy!
Suggest correction
Give kudos to tab author, rate the tab!
1 2 3 4 5
comments
print report bad tab
guest
You may want to rate the tab now too:
select rating
Wanna post a correction for this tab? Suggest correction