Oops, an error
Loading. Please wait.

Youre Not Alone Tab

version 1
version 1

Live

Whole song

Interactive

438 views 1 this week
no commentswrite comment
1 2 3 4 5
please rate
add to favorites
launch autoscroll
font size
0
reset
how to read this tab
guitar tuner
Tab Pro tools
  • play this tab
  • loop segment
  • change instrument
  • show fretboard
  • metronome
×
Best way to learn
"Youre Not Alone"
Autoscroll
slow
fast
+/-
esc
set tempo
stop
Contributor
Difficulty
novice
----------------------------------------------------------------------------

                    THE ENEMY- You're Not Alone (Live)

----------------------------------------------------------------------------

Tabbed By- ryan96skyblue
Email- rwalter96cov@gmail.com

This one's my personal favourite by The Enemy and it's
based on the live performances they do off the song,

Intro:

E|-14-14-14-14-x-x-x-x-x-x-x--------------------| Play this
A|-16-16-16-16-x-14-14-14-14--------------------| a couple
D|-16-16-16-16-x-16-16-16-16--------------------| of times.
G|-x-x-x-x-x-x-x-16-16-16-16--------------------|
B|-x-x-x-x-x-x-x-x-x-x-x-x-x--------------------|
e|-x-x-x-x-x-x-x-x-x-x-x-x-x--------------------|

Then just play this a load of times:

G|-14b-14b-14b-14b-14b-14b-14b-14b-14b-14b------

Verse One:

E|-2-2-2-2-x-x-x-x-x-x-x-x-x-x-x-x-x-x-x-x-x-x-x-x." Play this
A|-4-4-4-4-x-6-6-6-6-x-2-2-2-2-x-6-6-6-6-x-4-4-4-4." throught
D|-4-4-4-4-x-8-8-8-8-x-4-4-4-4-x-8-8-8-8-x-6-6-6-6." verse one
G|-3-3-3-3-x-8-8-8-8-x-4-4-4-4-x-8-8-8-8-x-6-6-6-6."
B|-x-x-x-x-x-x-x-x-x-x-x-x-x-x-x-x-x-x-x-x-x-x-x-x."
e|-x-x-x-x-x-x-x-x-x-x-x-x-x-x-x-x-x-x-x-x-x-x-x-x."

F#            Eb
Don't let the sun go down
       B
on our empire
         Eb            C#
it's too much to waste away
    F#             Eb
and don't let the walls
                    B
come down round our empire
         Eb           C#
it's too much to wave goodbye

Pre-Chorus:

E|-x-x-x-x-x-2-2-2-2-." Repeat this
A|-2-2-2-2-x-4-4-4-4-." until
D|-4-4-4-4-x-4-4-4-4-." "There all
G|-4-4-4-4-x-3-3-3-3-." wasted
B|-x-x-x-x-x-x-x-x-x-." anyway"
e|-x-x-x-x-x-x-x-x-x-."

E|-x-x-x-x-x-x-x-x-x-| Play this
A|-6-6-6-6-x-4-4-4-4-| at "There
D|-8-8-8-8-x-6-6-6-6-| all wasted
G|-8-8-8-8-x-6-6-6-6-| anyway"
B|-x-x-x-x-x-x-x-x-x-|
e|-x-x-x-x-x-x-x-x-x-|

E|-x-x-x-x-x-2-2-2-2---------." Repeat this
A|-2-2-2-2-x-4-4-4-4---------." until
D|-4-4-4-4-x-4-4-4-4---------." "Then you
G|-4-4-4-4-x-3-3-3-3---------." drowed and
B|-x-x-x-x-x-x-x-x-x---------." beat the
e|-x-x-x-x-x-x-x-x-x- brave--."

E|-x-x-x-x-x-x-x-x-x-." Play this
A|-6-6-6-6-x-4-4-4-4-." at "Then
D|-8-8-8-8-x-6-6-6-6-." you drowned
G|-8-8-8-8-x-6-6-6-6-." and beat
B|-x-x-x-x-x-x-x-x-x-." the brave"
e|-x-x-x-x-x-x-x-x-x-."

B                          F#
We've been working for a long time with it,
B                F#
Fighting for our way,
B                        F#
Now in the streets men stand in lines,
            Eb        C#
They're all wasted anyway.

B                F#
You live in an incestuous world,
           B                     F#
Where your conscience holds no weight,
B                                 F#
You sold us down the river like rats,
         Eb                   C#
Then you drowned and beat the brave.

Chorus:

E|-x-x-x-x-x-2-2-2-2-|
A|-2-2-2-2-x-4-4-4-4-|
D|-4-4-4-4-x-4-4-4-4-|
G|-4-4-4-4-x-3-3-3-3-|
B|-x-x-x-x-x-x-x-x-x-|
e|-x-x-x-x-x-x-x-x-x-|

E|-x-x-x-x-x-x-x-x-x-|
A|-6-6-6-6-x-4-4-4-4-|
D|-8-8-8-8-x-6-6-6-6-|
G|-8-8-8-8-x-6-6-6-6-|
B|-x-x-x-x-x-x-x-x-x-|
e|-x-x-x-x-x-x-x-x-x-|

Repeat this throught the chorus

B
Your not alone now, you know,
F#
Your not alone now, you know,
Eb                C#
Your not alone at all.

B
Your not alone, you know,
F#
Your not alone, you know,
Eb                 C#
Your not alone at all.

Repeat intro.

Verse Two:

E|-2-2-2-2-x-x-x-x-x-x-x-x-x-x-x-x-x-x-x-x-x-x-x-x." Play this
A|-4-4-4-4-x-6-6-6-6-x-2-2-2-2-x-6-6-6-6-x-4-4-4-4." throught
D|-4-4-4-4-x-8-8-8-8-x-4-4-4-4-x-8-8-8-8-x-6-6-6-6." verse two
G|-3-3-3-3-x-8-8-8-8-x-4-4-4-4-x-8-8-8-8-x-6-6-6-6."
B|-x-x-x-x-x-x-x-x-x-x-x-x-x-x-x-x-x-x-x-x-x-x-x-x."
e|-x-x-x-x-x-x-x-x-x-x-x-x-x-x-x-x-x-x-x-x-x-x-x-x."

F#            Eb
Don't let the sun go down
       B
on our empire
         Eb            C#
it's too much to waste away

    F#             Eb
and don't let the rains
                    B
come down round our empire
         Eb           C#
it's too much to wave goodbye

Pre-Chorus:

E|-x-x-x-x-x-2-2-2-2-." Repeat this
A|-2-2-2-2-x-4-4-4-4-." until
D|-4-4-4-4-x-4-4-4-4-." "There all
G|-4-4-4-4-x-3-3-3-3-." wasted
B|-x-x-x-x-x-x-x-x-x-." anyway"
e|-x-x-x-x-x-x-x-x-x-."

E|-x-x-x-x-x-x-x-x-x-| Play this
A|-6-6-6-6-x-4-4-4-4-| at "There
D|-8-8-8-8-x-6-6-6-6-| all wasted
G|-8-8-8-8-x-6-6-6-6-| anyway"
B|-x-x-x-x-x-x-x-x-x-|
e|-x-x-x-x-x-x-x-x-x-|

E|-x-x-x-x-x-2-2-2-2---------." Repeat this
A|-2-2-2-2-x-4-4-4-4---------." until
D|-4-4-4-4-x-4-4-4-4---------." "Then you
G|-4-4-4-4-x-3-3-3-3---------." drowed and
B|-x-x-x-x-x-x-x-x-x---------." beat the
e|-x-x-x-x-x-x-x-x-x- brave--."

E|-x-x-x-x-x-x-x-x-x-." Play this
A|-6-6-6-6-x-4-4-4-4-." at "Then
D|-8-8-8-8-x-6-6-6-6-." you drowned
G|-8-8-8-8-x-6-6-6-6-." and beat
B|-x-x-x-x-x-x-x-x-x-." the brave"
e|-x-x-x-x-x-x-x-x-x-."

B                          F#
We've been working for a long time with it,
B                F#
Fighting for our way,
B                        F#
Now in the streets men stand in lines,
            Eb        C#
They're all wasted anyway.

B                F#
You live in an incestuous world,
           B                     F#
Where your conscience holds no weight,
B                                 F#
You sold us down the river like rats,
         Eb                   C#
Then you drowned and beat the brave.

Chorus:

E|-x-x-x-x-x-2-2-2-2-|
A|-2-2-2-2-x-4-4-4-4-|
D|-4-4-4-4-x-4-4-4-4-|
G|-4-4-4-4-x-3-3-3-3-|
B|-x-x-x-x-x-x-x-x-x-|
e|-x-x-x-x-x-x-x-x-x-|

E|-x-x-x-x-x-x-x-x-x-|
A|-6-6-6-6-x-4-4-4-4-|
D|-8-8-8-8-x-6-6-6-6-|
G|-8-8-8-8-x-6-6-6-6-|
B|-x-x-x-x-x-x-x-x-x-|
e|-x-x-x-x-x-x-x-x-x-|

Repeat this throught the chorus

B
Your not alone now, you know,
F#
Your not alone now, you know,
Eb                C#
Your not alone at all.

B
Your not alone, you know,
F#
Your not alone, you know,
Eb                 C#
Your not alone at all.

Bridge:

E|-x-x-x-x-x-2-2-2-2-|
A|-2-2-2-2-x-4-4-4-4-|
D|-4-4-4-4-x-4-4-4-4-|
G|-4-4-4-4-x-3-3-3-3-|
B|-x-x-x-x-x-x-x-x-x-|
e|-x-x-x-x-x-x-x-x-x-|

E|-x-x-x-x-x-x-x-x-x-|
A|-6-6-6-6-x-4-4-4-4-|
D|-8-8-8-8-x-6-6-6-6-|
G|-8-8-8-8-x-6-6-6-6-|
B|-x-x-x-x-x-x-x-x-x-|
e|-x-x-x-x-x-x-x-x-x-|

             B                       F#
There's just too many dreams in this wasteland
            Eb           C#
for them to leave us all behind

    B                       F#
There's just too many dreams in this wasteland
            Eb           C#
for them to leave us all behind

Chorus:


E|-x-x-x-x-x-2-2-2-2-|
A|-2-2-2-2-x-4-4-4-4-|
D|-4-4-4-4-x-4-4-4-4-|
G|-4-4-4-4-x-3-3-3-3-|
B|-x-x-x-x-x-x-x-x-x-|
e|-x-x-x-x-x-x-x-x-x-|

E|-x-x-x-x-x-x-x-x-x-|
A|-6-6-6-6-x-4-4-4-4-|
D|-8-8-8-8-x-6-6-6-6-|
G|-8-8-8-8-x-6-6-6-6-|
B|-x-x-x-x-x-x-x-x-x-|
e|-x-x-x-x-x-x-x-x-x-|

Repeat this throught the chorus

B
Your not alone now, you know,
F#
Your not alone now, you know,
Eb                C#
Your not alone at all.

B
Your not alone, you know,
F#
Your not alone, you know,
Eb                 C#
Your not alone at all.

Thanks for reading, please rate and comment.
comments
We did not receive enough feedback on this tab! Please rate:
print report bad tab
1 2 3 4 5
I want to post or [tab]
guest
You may want to rate the tab now too:
select rating
Please do not post tabs as comments. Select "correction" instead!