Oops, an error
Loading. Please wait.

Youre Not Alone Tab

version 1
version 1

Whole song

Interactive

10,471 views 15 this week
4 commentsread comments
1 2 3 4 5
excellent!
x 5
add to favorites
launch autoscroll
font size
0
reset
how to read this tab
guitar tuner
Autoscroll
slow
fast
+/-
esc
set tempo
stop
Help us to improve Ultimate-Guitar.com Take our survey!
×
Author
----------------------------------------------------------------------------
                          THE ENEMY - Youre Not Alone
----------------------------------------------------------------------------

E-mail: SamBennett89@hotmail.co.uk

This is the album version, not sure how he plays it live cos theres only one guitarist.

INTRO

Guitar 1

e|-------------------------------------------------|
B|-------------------------------------------------|
G|--11-11-11-11-11-11-11-11-11-11-11-11-16-16-15---|
D|--x--x--x--x--x--x--x--x--x--x--x--x--x--x--x----|
A|--9--9--9--9--9--9--9--9--9--9--9--9--14-14-13---|
E|-------------------------------------------------|


Guitar 2

e|------|
B|------|
G|------|
D|--4---|  Play for the whole of the intro
A|--4---|
E|--2---|
PM  .


VERSE

e|--------------------------------------------------------------------|
B|--------------------------------------------------------------------|
G|--------------------------------------8-----8---8-----8-----8---8---|
D|------4-----4---4-----4-----4---4-8-8-8-8-8-8-8-8-8-8-8-8-8-8-8-8---|
A|--4-4-4-4-4-4-4-4-4-4-4-4-4-4-4-4-6-6-6-6-6-6-6-6-6-6-6-6-6-6-6-6---|
E|--2-2-2-2-2-2-2-2-2-2-2-2-2-2-2-2-----------------------------------|
PM  . . . . . . . . . . . . . . . . . . . . . . . . . . . . . . . .

e|--------------------------------------------------------------------|
B|--------------------------------------------------------------------|
G|------4-----4---4-----4-----4---4-----------------------------------|
D|--4-4-4-4-4-4-4-4-4-4-4-4-4-4-4-4-----4-----4---4---3-3-3-3-3-3-3---|
A|--2-2-2-2-2-2-2-2-2-2-2-2-2-2-2-2-4-4-4-4-4-4-4-4-4-4-4-4-4-4-4-4---|
E|----------------------------------2-2-2-2-2-2-2-2-2-1-1-1-1-1-1-1---|
PM  . . . . . . . . . . . . . . . . . . . . . . . . . . . . . . . .
PRECHORUS

Guitar 1 (I'm not sure you need to play this or whether its actually played but it 
good if your using two guitarists, could be played an octave lower)

e|----------------------------------------------------------|
B|----------------------------------------------------------|
G|--16-----11-----16-----11-----16-----11-----20-----18-----|
D|--x--x8--x--x8--x--x8--x--x8--x--x8--x--x8--x--x8--x--x8--|
A|--14-----9------14-----9------11-----9------18-----16-----|
E|----------------------------------------------------------|


Guitar 2

e|--------------------------------------------------|
B|--------------------------------------------------|
G|--4-----------4-----------4-----------8-----6-----|
D|--4-x8--4-----4-x8--4-----4-x8--4-----8-x8--6-x8--|
A|--2-----4-x8--2-----4-x8--2-----4-x8--6-----4-----|
E|--------2-----------2-----------2-----------------|


CHORUS

Guitar 1 (Again dunno if you need to play this)

e|------------------------------|
B|------------------------------|
G|--16-----11-----20-----18-----|
D|--x--x8--x--x8--x--x8--x--x8--|
A|--14-----9------18-----16-----|
E|------------------------------|


Guitar 2

e|--------------------------|
B|--------------------------|
G|--4-----------8-----6-----|
D|--4-x8--4-----8-x8--6-x8--|
A|--2-----4-x8--6-----4-----|
E|--------2-----------------|


BRIDGE

Guitar 1

e|-------------------------------------------|
B|--------------------------------12-11-12---|
G|--11--11--11-11-11-11--11-11-11-11-11-11---|
D|--x---x---x--x--x--x---x--x--x--x--x--x----|
A|--9---9---9--9--9--9---9--9--9--9--9--9----|
E|-------------------------------------------|


Guitar 2

e|------|
B|------|
G|------|
D|--4---|  Play for the whole of the preverse
A|--4---|
E|--2---|
PM  .


SOLO Part 1

Guitar 1

e|-----------------------------------------------------------------------|
B|-----------------------------------------------------------------------|
G|--13-13-13-11--11-11-11-10-10-10-11--11-11-11-8--8--8--8--8--8--8--8---|
D|--x--x--x--x---x--x--x--x--x--x--x---x--x--x--x--x--x--x--x--x--x--x---|
A|--11-11-11-9---9--9--9--8--8--8--9---9--9--9--6--6--6--6--6--6--6--6---|
E|-----------------------------------------------------------------------|

e|---------------------------|
B|---------------------------|
G|--6--6--6--6--6--6--6--6---|
D|--x--x--x--x--x--x--x--x---|
A|--4--4--4--4--4--4--4--4---|
E|---------------------------|

Solo Part 2

e|-----------------------------------------------------------------------|
B|-----------------------------------------------------------------------|
G|--13-13-13-11--11-11-11-10-10-10-11--11-11-11-8--8--8--8--8--8--8--8---|
D|--x--x--x--x---x--x--x--x--x--x--x---x--x--x--x--x--x--x--x--x--x--x---|
A|--11-11-11-9---9--9--9--8--8--8--9---9--9--9--6--6--6--6--6--6--6--6---|
E|-----------------------------------------------------------------------|

e|---------------------------|
B|---------------------------|
G|--10-10-10-10-10-10-10-10--|
D|--x--x--x--x--x--x--x--x---|
A|--8--8--8--8--8--8--8--8---|
E|---------------------------|

Guitar 2 - for both solo parts same as chorus


SONG STRUCTURE

Intro        x 4
Verse        x 2
Prechorus    x 2
Chorus       x 2
Bridge       x 2
Verse        x 2
Prechorus    x 2
Chorus       x 2
Solo Part 2  x 1
Solo Part 1  x 1
Chorus       x 2
Solo Part 1  x 1
Solo Part 2  x 1
Solo Part 1  x 1
Solo Part 2  x 1

Finish on:

Guitar 1

e|------|
B|------|
G|--11--|
D|--x---|
A|--9---|
E|------|

Guitar 2

e|-----|
B|-----|
G|-----|
D|--4--|
A|--4--|
E|--2--|


LYRICS

Don't let the sun go down
on our empire
it's too much to waste
and don't let the walls
come down round our empire
it's too much to wave goodbye
we've been working for a long time
we've been fighting for a way
now in the streets men stand in lines
they're all wasted anyway
you live in an incestuous world
where your conscience holds no weight
you sold us down the river like rats
then you drowned and beat the brave

you're not alone, you know
you're not alone, you know
you're not alone at all
you're not alone, you know
you're not alone, you know
you're not alone at all

don't let the sun go down
on our empire
it's too much to waste
and don't let the rains come down,
on our empire
it's too much to wash away
we've been working for a long time
we've been fighting for a way
now in the streets men stand in lines
they're all wasted anyway
you live in an incestuous world
where your conscience holds no weight
you sold us down the river like rats
then you drowned and beat the brave

you're not alone, you know
you're not alone, you know
you're not alone at all
you're not alone, you know
you're not alone, you know
you're not alone at all

yeah...

not alone not alone

there's just too many dreams
in this wasteland
for you to leave us all behind
there's just too many dreams
in this wasteland
for you to leave us all behind

you're not alone, you know
you're not alone, you know
you're not alone at all
you're not alone, you know
you're not alone, you know
you're not alone at all


Thats it I think, knock yourselves out. E-mail me if you've got any improvements
Suggest correction
comments
print report bad tab
4 comments total. Showing first comments.
0 reply
Dmcg 10 wrote on September 15 2007, 12:51 pm

on the bits you say "i dont know if you have to play them or not" you dont have to play it ...i think the bass palys it

0 reply
Dom_y2k4 210 wrote on November 6 2007, 08:24 pm

awesome tab! everything sounds great!

0 reply
neqinox 20 wrote on April 6 2009, 03:52 pm

The start is incorrect...theres only one guitar...what you've labled as guitar 1 for the intro is actually played on the bass

guest
You may want to rate the tab now too:
select rating
Please do not post tabs as comments. Select "correction" instead!