Oops, an error
Loading. Please wait.

1000 Letters Bass Tab

347 views 1 this week
no commentswrite comment
1 2 3 4 5
please rate
add to favorites
launch autoscroll
font size
0
reset
guitar tuner
Tab Pro tools
  • play this tab
  • loop segment
  • change instrument
  • show fretboard
  • metronome
×
Best way to learn
"1000 Letters"
Autoscroll
slow
fast
+/-
esc
set tempo
stop
Difficulty
intermediate
Opening Slide!

G|---------| 
D|---------|
A|---------|
E|---2/9\4-|


Intro!

G|-------------------------------------------------------| x2
D|-------------------------------------------------------|
A|-------------------8-8-8-6-6-6------------------9------|
E|---4-4-4-4-4-4-4-4-------------4-4-4-4-4-4-4--77-79767-|


Verse!

G|---------------------------------------------------------|
D|---------------------------------------------------------|
A|-------------------6-6-6-4-4-4---------------6-6-6-4-4-4-|
E|---4-4-4-4-4-4-4-4-------------4-4-4-4-4-4-4-------------|



G|-----------------------------------------|
D|------------------66643----666----8-8-8--|
A|---8-8-8-6-6-6----------444---44-6-6-6-6-|
E|---------------444-----------------------|



G|---------------------------------------------------------|
D|---------------------------------------------------------|
A|-------------------6-6-6-4-4-4---------------6-6-6-4-4-4-|
E|---4-4-4-4-4-4-4-4-------------4-4-4-4-4-4-4-------------|



G|---------------------------------------------------------|
D|------------------66643----666-----5----5--5-5-----------|
A|---8-8-8-6-6-6----------444---44-68-6-68-68-6------------|
E|---------------444---------------------------------------|


Chorus!

G|--------------------------------------------------------|
D|-----------------------------------33----33366---8855---|
A|---44334455664433---------------333---444------66----66-|
E|-----------------66-4---4-3-2-1-------------------------|

Intro x1
Verse x1
Chorus x1


Intro! B

G|-------------------------------------------------------------------| 
D|-------------------------------------------------------------------|
A|-------------------8-8-8-6-6-6-------------------------------------|
E|---4-4-4-4-4-4-4-4-------------4-4-4-4-4-4-4--777777999999---------|


Bridge!

G|---------------------------------------------------------------------------|
D|---------------------------------------------------------------------------|
A|---------------------------------------------------------------------------|
E|---4---8----9---2222229999999----------------------------------------------|



G|---------------------------------------------------------------------------|
D|------8-6-5-6/8/10---------------------------------------------------------|
A|---------------------------------------------------------------------------|
E|---4-------------------444444446666666666664433111-------------------------|


Outro!

G|---------------------------------------------------------------------------|
D|---------------------------------------------------------------------------|
A|-----------------8-8-8-6-6-6-----------------------------------------------|
E|---4-4-4-4-4-4-4-------------4-4-4-4-4-4-4--7-7-7-9-9-9--------------------|



G|---------------------------------------------------------------------------|
D|--------------------------------------------------------6------------------|
A|-----------------8-8-8-6-6-6-----------------------------------------------|
E|---4-4-4-4-4-4-4-------------4-4-4-4-4-4-4--7-7-7-9-9-9--------------------|



G|---------------------------------------------------------------------------|
D|---66-55-44-3--3---------6-------------------------------------------------|
A|-------------3--3----------------------------------------------------------|
E|---------------------------------------------------------------------------|

comments
We did not receive enough feedback on this tab! Please rate:
print report bad tab
1 2 3 4 5
I want to post or [tab]
guest
You may want to rate the tab now too:
select rating
Please do not post tabs as comments. Select "correction" instead!