Oops, an error
Loading. Please wait.

2Nd Foundation Tab

420 views 3 this week
no commentswrite comment
1 2 3 4 5
3 more votes to show rating
add to favorites
launch autoscroll
font size
0
reset
how to read this tab
guitar tuner
Autoscroll
slow
fast
+/-
esc
set tempo
stop
Help us to improve Ultimate-Guitar.com Take our survey!
×
Author
-------------------------------------------------------------------------
2nd Foundation
-------------------------------------------------------------------------

intro
e----------------------------------------------------------|
B--10-10-10-7-7-7-11-11-11-8-8-8---10-10-10-8-7------------|
G--9--9--9--6-6-6-10-10-10-7-7-7---9--9--9--7-6--7---7-----|
D--------------------------------------------------7-------|
A----------------------------------------------------------|
E----------------------------------------------------------|

e------------------------------------------------|
B--10-10-10-7-7-7-11-11-11-8-8-8---10-10-10-8-7--|
G--9--9--9--6-6-6-10-10-10-7-7-7---9--9--9--7-6--|
D------------------------------------------------|
A------------------------------------------------|
E------------------------------------------------|

e----------------------------------------------|
B--7-7-7h8r7--7-7-7h8r7--7-7-7h8r7--7-7-7h8r7--|
G--6-6--------6-6--------6-6--------6-6--------|
D----------------------------------------------|
A----------------------------------------------|
E----------------------------------------------|

e--------------------------------------------------|
B--------------------------------------------------|
G--7~---------------------7-7-7-7------------------|
D--7~----8-8-8-8--5-5-5-5-7-7-7-7-7-7-7-7-7-7-7-7--|
A--5~----8-8-8-8--5-5-5-5-5-5-5-5-7-7-7-7-7-7-7-7--|
E--------6-6-6-6--3-3-3-3---------5-5-5-5-5-5-5-5--|

e----------------------------------------------------------------------------|
B------3-----3---7-----7---------3-----3---7-----7--------3-----3---7----5---|
G----5-----5-------7-----7-----5-----5-------7-----7----5-----5-------7--5---|
D--5-----5-----5-----5-------5-----5-----5-----5------5-----5-----5------3---|
A----------------------------------------------------------------------------|
E----------------------------------------------------------------------------|

e-----------------------------------|
B-----------------------------------|
G--7-7-7-7---------4-4-4-4----------|
D--7-7-7-7-4-4-4-4-4-4-4-4-5-5-5-5--|
A--5-5-5-5-4-4-4-4-2-2-2-2-5-5-5-5--|
E----------2-2-2-2---------3-3-3-3--|

e---------------------------------------|
B---------------------------------------|
G--7-7-6-6-----4-4---------------7------|
D--7-7-6-6-4-4-4-4---9-9-9-7-7-7-7------|
A--5-5-4-4-4-4-2-2---9-9-9-7-7-7-5------|
E----------2-2-------7-7-7-5-5-5--------|

e---------------------------------------|
B---------------------------------------|
G--7-7-6-6-----4-4---------------7------|
D--7-7-6-6-4-4-4-4---9-9-9-7-7-7-7------|
A--5-5-4-4-4-4-2-2---9-9-9-7-7-7-5------|
E----------2-2-------7-7-7-5-5-5--------|

e------------------------------|
B------------------------------|
G--10-10-10-10-10-10-10-10-----|
D--10-10-10-10-10-10-10-10-----|
A--8--8--8--8--8--8--8--8------|
E------------------------------|

e-------------------------------------------------------------------|
B-------------------------------------------------------------------|
G--7-7-7-7-7-7-7-7-7-7---------------------7-7-7-7------------------|
D--7-7-7-7-7-7-7-7-7-7----8-8-8-8--5-5-5-5-7-7-7-7-7-7-7-7-7-7-7-7--|
A--5-5-5-5-5-5-5-5-5-5----8-8-8-8--5-5-5-5-5-5-5-5-7-7-7-7-7-7-7-7--|
E-------------------------6-6-6-6--3-3-3-3---------5-5-5-5-5-5-5-5--|

e-------------------------------------------------------------------|
B-------------------------------------------------------------------|
G--7-7-7-7-7-7-7-7-7-7-------------------7-7-7-7--------------------|
D--7-7-7-7-7-7-7-7-7-7----8-8-8-8--5-5-5-5-7-7-7-7-7-7-7-7-7-7-7-7--|
A--5-5-5-5-5-5-5-5-5-5----8-8-8-8--5-5-5-5-5-5-5-5-7-7-7-7-7-7-7-7--|
E-------------------------6-6-6-6--3-3-3-3---------5-5-5-5-5-5-5-5--|
    m________________m

e--------------------------------------------------------------------------|
B------3-----3---7-----7---------3-----3---7-----7--------3-----3---7------|
G----5-----5-------7-----7-----5-----5-------7-----7----5-----5-------7----|
D--5-----5-----5-----5-------5-----5-----5-----5------5-----5-----5--------|
A--------------------------------------------------------------------------|
E--------------------------------------------------------------------------|

e--1-1--0--------|
B--1-x--0--------|
G--x-x--x--5~----|
D--3-3--2--5~----|
A--3-3--2--3~----|
E--1-1--0--------|


e-----------------------------------|
B-----------------------------------|
G--7-7-7-7---------4-4-4-4----------|
D--7-7-7-7-4-4-4-4-4-4-4-4-5-5-5-5--|
A--5-5-5-5-4-4-4-4-2-2-2-2-5-5-5-5--|
E----------2-2-2-2---------3-3-3-3--|


e---------------------------------------|
B---------------------------------------|
G--7-7-6-6-----4-4---------------7------|
D--7-7-6-6-4-4-4-4---9-9-9-7-7-7-7------|
A--5-5-4-4-4-4-2-2---9-9-9-7-7-7-5------|
E----------2-2-------7-7-7-5-5-5--------|

e---------------------------------------|
B---------------------------------------|
G--7-7-6-6-----4-4---------------7------|
D--7-7-6-6-4-4-4-4---9-9-9-7-7-7-7------|
A--5-5-4-4-4-4-2-2---9-9-9-7-7-7-5------|
E----------2-2-------7-7-7-5-5-5--------|


e-----------------5------------------------|
B--7-7-7-8--7-7-7----7-7-7-8--7-7-7-8-7~---|
G--6-6-6----6-6------6-6-6----6-6-6--------| x4
D------------------------------------------|
A------------------------------------------|
E------------------------------------------|

e------------------------------------------|
B--5~--------------------------------------|
G------------------------------------------|
D--7-7-7--7-7-7--7-7-7---7-7-7-7-7-7-7-7---|
A--7-7-7--7-7-7--7-7-7---7-7-7-7-7-7-7-7---|
E--5-5-5--5-5-5--5-5-5---5-5-5-5-5-5-5-5---|


e-------------------------------5~---|
B-----------------------------3------|
G--7-7-7-7---------4-4-4-4-----------|
D--7-7-7-7-4-4-4-4-4-4-4-4--5--------|
A--5-5-5-5-4-4-4-4-2-2-2-2-----------|
E----------2-2-2-2-------------------|


e---------------------------------------|
B---------------------------------------|
G--7-7-6-6-----4-4---------------7------|
D--7-7-6-6-4-4-4-4---9-9-9-7-7-7-7------|
A--5-5-4-4-4-4-2-2---9-9-9-7-7-7-5------|
E----------2-2-------7-7-7-5-5-5--------|

e---------------------------------------|
B---------------------------------------|
G--7-7-6-6-----4-4---------------7------|
D--7-7-6-6-4-4-4-4---9-9-9-7-7-7-7------|
A--5-5-4-4-4-4-2-2---9-9-9-7-7-7-5------|
E----------2-2-------7-7-7-5-5-5--------|

e--------------|
B--------------|
G--7-7-x-10----|
D--7-7-x-10----|
A--5-5-x-8-----|
E--------------|
Suggest correction
Give kudos to tab author, rate the tab!
1 2 3 4 5
comments
print report bad tab
guest
You may want to rate the tab now too:
select rating
Wanna post a correction for this tab? Suggest correction