Oops, an error
Loading. Please wait.

Aja Bass Tab

436 views 1 this week
1 commentread comment
1 2 3 4 5
2 more votes to show rating
add to favorites
launch autoscroll
font size
0
reset
guitar tuner
Autoscroll
slow
fast
+/-
esc
set tempo
stop
Help us to improve Ultimate-Guitar.com Take our survey!
×
Author
Difficulty
advanced
Entire song transcribed by M. Niemuth

G-------------|
D-------6666--|
A--4444-------|
E-------------|

G-------------------------------------------------------------------|
D---00-55-66-88--88h6p0--6666-0---------88-99-1111-----88-99-1111---|
A-------------------------------8-9--99-------------99--------------|
E-------------------------------------------------------------------|

G-------------|
D-------6666--|
A--4444-------|
E-------------|

G-------------------------------------------------------------------|
D---00-55-66-88--88h6p0--6666-0---------88-99-1111--1111-99-88------|
A-------------------------------8-9--99------------------------99---|
E-------------------------------------------------------------------|

G-----------------  ----------------------------------------------------------------|
D-----------------  ----9999-8888--------------11-22-44-----33-44-66-44--3-4-6-4-3--|
A-2222221-4444443-  ---------------444444--22------------44-------------------------|
E-----------------x2----------------------------------------------------------------|

G-----------------------------------------------------|
D------------------------------66-44-33-----11-33-11--|
A----11-22-44-----33-44-66--44-----------22-----------|
E-22-----------44-------------------------------------|

G-------------|
D-------6666--|
A--4444-------|
E-------------|

G-------------------------------------------------------------------|
D---00-55-66-88--88h6p0--6666-0---------88-99-1111-----88-99-1111---|
A-------------------------------8-9--99-------------99--------------|
E-------------------------------------------------------------------|

G-------------|
D-------6666--|
A--4444-------|
E-------------|

G-------------------------------------------------------------------|
D---00-55-66-88--88h6p0--6666-0---------88-99-1111--1111-99-88------|
A-------------------------------8-9--99------------------------99---|
E-------------------------------------------------------------------|
Suggest correction
Give kudos to tab author, rate the tab!
1 2 3 4 5
comments
print report bad tab
1 comment total.
0 reply
BigMacca 31 May 26, 2012 03:36 PM

there are off parts, but i doubt there are many people who would attempt this so...

well done indeed.

guest
You may want to rate the tab now too:
select rating
Wanna post a correction for this tab? Suggest correction