Oops, an error
Loading. Please wait.

Aja Tab

639 views 9 this week
no commentswrite comment
1 2 3 4 5
please rate
add to favorites
launch autoscroll
font size
0
reset
how to read this tab
guitar tuner
Tab Pro tools
  • play this tab
  • loop segment
  • change instrument
  • show fretboard
  • metronome
×
Best way to learn
"Aja"
Autoscroll
slow
fast
+/-
esc
set tempo
stop
Contributor
Difficulty
novice
Band - The Ergs!
Song - Aja
Album - Jersey's Best Prancers

Tabbed By: Tyler Freear (SumFX)

Tuning: Standard (E A D G B E)

Awesome Song By The Ergs!

/=Slide

Intro
|-------------------|
|-------------------|
|-6-----------------|
|-6-----------------|
|-4-----------------|
|-------------------|

Verse 1
|----------------------------------------------------|
|----------------------------------------------------|
|-66666666666666666----------------------------------|
|-66666666666666666-44444-8888888-6666666-444444444--| x2
|-44444444444444444-44444-8888888-6666666-444444444--|
|-------------------22222-6666666-4444444-222222222--|

Verse 2
|---------------------------------|
|---------------------------------|
|-44444444444444-66666666666666---|
|-44444444444444-66666666666666---| x3
|-22222222222222-44444444444444---|
|---------------------------------|

Solo 1
|-2------2---4/6--4-----6/8--|
|---2------2--------4--------|
|-----3---------------5------|
|----------------------------|
|----------------------------|
|----------------------------|

Rhythm For Solo 1
|------------------------|
|------------------------|
|------------------------|
|-4444444444-6666666666--|
|-4444444444-6666666666--|
|-2222222222-4444444444--|

Chorus
|-------------------------|------------------------|
|-------------------------|------------------------|
|-------------66666-44444-|-------------6666666666-|
|-44444-66666-66666-44444-|-44444-66666-6666666666-|
|-44444-66666-44444-22222-|-44444-66666-4444444444-|
|-22222-44444-------------|-22222-44444------------|

Solo 2
|-----------------------------|-------------|
|-----------------------------|-------------|
|-5/6-66-5/6-66-5/6-66-5/6-66-|-5/6-666-5-3-|
|-5/6-66-5/6-66-5/6-66-5/6-66-|-5/6-666-5-3-|
|-----------------------------|-------------|
|-----------------------------|-------------|

|--------------------|
|-----6--------------|
|-6-8---8-6-6-8/10-6-|
|--------------------|
|--------------------|
|--------------------|

Rhythm For Solo 2
|--------------------------------------------------|
|--------------------------------------------------|
|-66666666666666666--------------------------------|
|-66666666666666666-44444-8888888-6666666-4444444--| 
|-44444444444444444-44444-8888888-6666666-4444444--|
|-------------------22222-6666666-4444444-2222222--|

Outro
|--------------------|
|--------------------|
|-6---------Add Lib--|
|-6------------------|
|-4------------------|
|--------------------|

Structure
Intro
Verse 1
Verse 2
Solo 1
Chorus
Solo 2
Outro

Great Band, Bloomin' Brilliant Song!

Rate & Comment Please
comments
We did not receive enough feedback on this tab! Please rate:
print report bad tab
1 2 3 4 5
I want to post or [tab]
guest
You may want to rate the tab now too:
select rating
Please do not post tabs as comments. Select "correction" instead!