Oops, an error
Loading. Please wait.

Boston Mass Tab

584 views 1 this week
no commentswrite comment
1 2 3 4 5
please rate
add to favorites
launch autoscroll
font size
0
reset
how to read this tab
guitar tuner
Autoscroll
slow
fast
+/-
esc
set tempo
stop
Help us to improve Ultimate-Guitar.com Take our survey!
×
Contributor
charliezard! 1,337
-------------------------------------------------------------
Boston, Mass.
-------------------------------------------------------------

intro
e--------------------------------------|
B--------------------------------------|
G--------------------------------------|
D--7-7-7-7--2-2-2-2--4-4-4-4--2-2-2-2--|
A--7-7-7-7--2-2-2-2--4-4-4-4--2-2-2-2--|
E--5-5-5-5--0-0-0-0--2-2-2-2--0-0-0-0--|

e-----------------------------------------------------|
B-----------------------------------------------------|
G--7-7--6-6--4-4-4-4-4-4-----------6p4-4-6p4-4-4h6----|
D--7-7--6-6--4-4-4-4-4-4--7-7-7-7------------------7--|
A--5-5--4-4--2-2-2-2-2-2--7-7-7-7---------------------|
E-------------------------5-5-5-5---------------------|

e--------------------------------------|
B--------------------------------------|
G--------------------------------------|
D--7-7-7-7--2-2-2-2--4-4-4-4--2-2-2-2--|
A--7-7-7-7--2-2-2-2--4-4-4-4--2-2-2-2--|
E--5-5-5-5--0-0-0-0--2-2-2-2--0-0-0-0--|

e------------------------------------------|
B------------------------------------------|
G--7-7-7-7--6-6-6-6------------------------|
D--7-7-7-7--6-6-6-6--4-4-4-4--2--x-x--x-x--|
A--5-5-5-5--4-4-4-4--4-4-4-4--2--x-x--x-x--|
E--------------------2-2-2-2--0--x-x--x-x--|

e----------------------------------------------|
B----------------------------------------------|
G----------------------------------------------| x2
D------5-5---4-4-4-4------7-7-----5-5----------|
A--5-5---5---4-4-4-4--7-7-7-7-5-5-5-5----------|
E--3-3---3---2-2-2-2--5-5-5-5-7-7-7-7----------|

e---------------------------------------|
B---------------------------------------|
G--6-6-6-6--4-4-4-4--6-6-6-6--9-8-6-4---|
D--6-6-6-6--4-4-4-4--6-6-6-6------------|
A--4-4-4-4--2-2-2-2--4-4-4-4------------|
E---------------------------------------|

e---------------------------------------|
B---------------------------------------|
G--6-6-6-6--4-4-4-4--6-6-6-6--9-8-11-9--|
D--6-6-6-6--4-4-4-4--6-6-6-6------------|
A--4-4-4-4--2-2-2-2--4-4-4-4------------|
E---------------------------------------|


e------------------------------------------------|
B------------------------------------------------|
G-------------9---9-9-9--11-11-11-11--9-9-9-9----|
D--7---7-7-7--9---9-9-9--11-11-11-11--9-9-9-9----|
A--7---7-7-7--7-x-7-7-7--9--9--9--9---7-7-7-7----|
E--5-x-5-5-5-------------------------------------|


e-------------------------------------------------|
B-------------------------------------------------|
G--7-x-6-6-x-4-4-4-4-4-4-4----6-4-4--6-4-4-6p4----|
D--7-x-6-6-x-4-4-4-4-4-4-4-7-------------------7~-|
A--5-x-4-4-x-2-2-2-2-2-2-2-7----------------------|
E--------------------------5----------------------|


solo
e----------------------7/12-11---------------------------------------|
B------10\9-7---7-9-10---------12-9----------------------------------|
G--6-9--------9----------------------/11-9-------------------------2-|
D-------------------------------------------12-11------2-2-4-4-2---2-|
A--------------------------------------------------12------------4-0-|
E--------------------------------------------------------------------|
comments
We did not receive enough feedback on this tab! Please rate:
print report bad tab
1 2 3 4 5
I want to post or [tab]
guest
You may want to rate the tab now too:
select rating
Please do not post tabs as comments. Select "correction" instead!