Oops, an error
Loading. Please wait.

Flourescent Stars Tab

363 views 1 this week
no commentswrite comment
1 2 3 4 5
please rate
add to favorites
launch autoscroll
font size
0
reset
how to read this tab
guitar tuner
Tab Pro tools
  • play this tab
  • loop segment
  • change instrument
  • show fretboard
  • metronome
×
Best way to learn
"Flourescent Stars"
Autoscroll
slow
fast
+/-
esc
set tempo
stop
Contributor
----------------------------------------------------------------------------
Fluorescent Stars
----------------------------------------------------------------------------

e-----------------------------------------------------|
B-----------------------------------------------------|
G------------------------------------5-5-5-5-5-5-5-5--|
D----------5-5--------------4-4------5-5-5-5-5-5-5-5--|
A------3-3-----3-3------5-5-----0-0--3-3-3-3-3-3-3-3--|
E--3-3--------------6-6-------------------------------|

e-----------------------------------------------------|
B-----------------------------------------------------|
G------------------------------------5-5-5-5----------|
D----------5-5--------------4-4------5-5-5-5-5-5-5-5--|
A------3-3-----3-3------5-5-----0-0--3-3-3-3-5-5-5-5--|
E--3-3--------------6-6----------------------3-3-3-3--|


e-------------------------------|
B-------------------------------|
G--5-5-5-5-5--10-10-10-10-10----| x2
D--5-5-5-5-5--10-10-10-10-10----|
A--3-3-3-3-3--8--8--8--8--8-----|
E-------------------------------|

e---------------------------------------------------------------|
B--------------------6-6-6-6------------------------------------|
G--5-5-5-5-----------7-7-7-7-------------5-5-5----------5-5-5-5-|
D--5-5-5-5--7-7-7-7--7-7-7-7---7-7-7-7-7-7-7-7--7-7-7-7-7-7-7-7-|
A--3-3-3-3--7-7-7-7--5-5-5-5---7-7-7-7-7-7-7-7--7-7-7-7-7-7-7-7-|
E-----------5-5-5-5------------5-5-5-5-5-5-5-5--5-5-5-5-5-5-5-5-|

e-------------------------------------|
B-------------------------------------|
G----------5-5-5-5---5-5-5-5-5-5-5-5--|
D--7-7-7-7-7-7-7-7---5-5-5-5-5-5-5-5--|
A--7-7-7-7-7-7-7-7---3-3-3-3-3-3-3-3--|
E--5-5-5-5-5-5-5-5--------------------|


Repeat everything once

e-----------------------------------------------------|
B-----------------------------------------------------|
G------------------------------------5-5-5-5--5-4-5-4-|
D----------5-5--------------4-4------5-5-5-5----------|
A------3-3-----3-3------5-5-----0-0--3-3-3-3----------|
E--3-3--------------6-6-------------------------------|

e-----------------------------------------------------|
B-----------------------------------------------------|
G------------------------------------5-5-5-5-5-5-5-5--|
D----------5-5--------------4-4------5-5-5-5-5-5-5-5--|
A------3-3-----3-3------5-5-----0-0--3-3-3-3-3-3-3-3--|
E--3-3--------------6-6-------------------------------|

e--------------------------------------------------------------|
B--------------------------------------------------------------|
G------------------------------------5-5-----------------------|
D----------5-5--------------4-4------5-5---------7-------------|
A------3-3-----3-3------5-5-----0-0--3-3--7-8-10---10-8-7--8\--|
E--3-3--------------6-6----------------------------------------|

e----------------------------------------|
B----------------------------------------|
G------------------------------------5~--|
D----------5-5--------------4-4------5~--|
A------3-3-----3-3------5-5-----0-0--3~--|
E--3-3--------------6-6------------------|
comments
We did not receive enough feedback on this tab! Please rate:
print report bad tab
1 2 3 4 5
I want to post or [tab]
guest
You may want to rate the tab now too:
select rating
Please do not post tabs as comments. Select "correction" instead!