Oops, an error
Loading. Please wait.

Kind Of Like Smitten Tab

1,150 views 9 this week
no commentswrite comment
1 2 3 4 5
excellent!
x 3
add to favorites
launch autoscroll
font size
0
reset
how to read this tab
guitar tuner
Tab Pro tools
  • play this tab
  • loop segment
  • change instrument
  • show fretboard
  • metronome
×
Best way to learn
"Kind Of Like Smitten"
Autoscroll
slow
fast
+/-
esc
set tempo
stop
Contributor
Difficulty
novice
Band - The Ergs!
Song - Kind of Like Smitten
Album - Jersey's Best Prancers

Tabbed By: Tyler Freear (SumFX)

Tuning: Standard (E A D G B E)

Whoa, This Song Has One Hell Of A Chorus!

Intro
|-----------------|
|-----------------|
|-555-----333-----|
|-555-333-333-55--| x4
|-333-333-111-55--|
|-----111-----33--|

Verse
|--------------------------|
|--------------------------|
|-55555--------------------|
|-55555-33333-55555-33333--| x4
|-33333-33333-55555-33333--|
|-------11111-33333-11111--|

Bridge 1
|-----------------------------|-----------|
|-----------------------------|-----------|
|-333333--------333333--------|-3---------|
|-333333-555555-333333-555555-|-3----5----|
|-111111-555555-111111-555555-|-1----5----|
|--------333333--------333333-|------3----|

|------------------|-----------|-----------------|
|------------------|-----------|-----------------|
|-555--------------|-3---------|-555-----333-----|
|-555-333-555-333--|-3----5----|-555-333-333-555-|
|-333-333-555-333--|-1----5----|-333-333-111-555-|
|-----111-333-111--|------3----|-----111-----333-|

Chorus
|------------------------------------------------|
|------------------------------------------------|
|-----------------5555555---------3333333--------|
|-7777777-5555555-5555555-3333333-3333333-5------|
|-7777777-5555555-3333333-3333333-1111111-5------|
|-5555555-3333333---------1111111---------3------|

Intro
|-----------------|
|-----------------|
|-555-----333-----|
|-555-333-333-55--| x4
|-333-333-111-55--|
|-----111-----33--|

Bridge 2
|-------------------------------------|
|-------------------------------------|
|-5-x-5555----------------------------|
|-5-x-5555-7-x-7777-3-x-3333-5-x-5555-| x2
|-3-x-3333-7-x-7777-3-x-3333-5-x-5555-|
|----------5-x-5555-1-x-1111-3-x-3333-|

Chorus
|------------------------------------------------|
|------------------------------------------------|
|-----------------5555555---------3333333--------|
|-7777777-5555555-5555555-3333333-3333333-5------|
|-7777777-5555555-3333333-3333333-1111111-5------|
|-5555555-3333333---------1111111---------3------|

Outro
|----------------|----------------|-----|
|----------------|----------------|-----|
|-555------------|-555-----333----|-5---|
|-555-333-555-33-|-555-333-333-55-|-5---|
|-333-333-555-33-|-333-333-111-55-|-3---|
|-----111-333-11-|-----111-----33-|-----|

Great Song!
Rate & Comments Please
comments
We did not receive enough feedback on this tab! Please rate:
print report bad tab
1 2 3 4 5
I want to post or [tab]
guest
You may want to rate the tab now too:
select rating
Please do not post tabs as comments. Select "correction" instead!