Oops, an error
Loading. Please wait.

See Him Again Tab

1,035 views 6 this week
no commentswrite comment
1 2 3 4 5
please rate
add to favorites
launch autoscroll
font size
0
reset
how to read this tab
guitar tuner
Autoscroll
slow
fast
+/-
esc
set tempo
stop
Help us to improve Ultimate-Guitar.com Take our survey!
×
Contributor
charliezard! 1,337
----------------------------------------------------------------------------
See Him Again
----------------------------------------------------------------------------

intro
e-0--
B-0--
G-1--
D-2--
A-2--
E-0--

e------------------------------------------------------|
B------------------------------------------------------|
G--9-9-9-9-9-9--6-6-6-6-6-6----------------------------|
D--9-9-9-9-9-9--6-6-6-6-6-6--6-6-6-6-6-6--4-4-4-9-9-9--|
A--7-7-7-7-7-7--4-4-4-4-4-4--6-6-6-6-6-6--4-4-4-9-9-9--|
E----------------------------4-4-4-4-4-4--2-2-2-7-7-7--|

e-----------------------------------------------------------------|
B-----------------------------------------------------------------|
G--9-9-9-9-9-9--6-6-6-6-6-6---------------------------------------|
D--9-9-9-9-9-9--6-6-6-6-6-6--6--6-7--7-4--4-4-4-4--9-9-9-9-9-9-9--|
A--7-7-7-7-7-7--4-4-4-4-4-4--6--6-7--7-4--4-4-4-4--9-9-9-9-9-9-9--|
E----------------------------4--4-5--5-2--2-2-2-2--7-7-7-7-7-7-7--|


e--------------------------------0-0-0-0-0-0-0-0--|
B--------------------------------0-0-0-0-0-0-0-0--|
G--6-6-6-6-6-6-6-----------------1-1-1-1-1-1-1-1--| x2
D--6-6-6-6-6-6-6--7-7-7-7-7-7-7--2-2-2-2-2-2-2-2--|
A--4-4-4-4-4-4-4--7-7-7-7-7-7-7--2-2-2-2-2-2-2-2--|
E-----------------5-5-5-5-5-5-5--0-0-0-0-0-0-0-0--|


Repeat everything once

solo
e----------------------------------------------------------------------|
B----------------------------------------------------------------------|
G--------------------13------------------------------------------------|
D----------11-13-14-----14--13--------------------------------13-b(14)-|
A--7/11-14-----------------------14--12-11-12-11\-7--/11h12h14---------|
E----------------------------------------------------------------------|

e----------------------------------------------------------------------|
B-------------------------------------------------------------12-12/14-|
G--13-15-16-13--16-16-16--13-13-13-16b(18)r-14-13------13-14-----------|
D---------------16-16-16--13-13-13----------------14-------------------|
A----------------------------------------------------------------------|
E----------------------------------------------------------------------|

e-----------------------------------------------19-17-16---------------|
B--17-17--17--17h19-19h21p19p17-19-21--19-17-19-----------19-17--------|
G---------------------------------------------------------------18-16--|
D----------------------------------------------------------------------|
A----------------------------------------------------------------------|
E----------------------------------------------------------------------|

e---------------------------------|
B---------------------------------|
G--14-13-14-13-----13h14h16/18~---|
D--------------14-----------------|
A---------------------------------|
E---------------------------------|

e--------------------------------0-0-0-0-0-0-0-0--|
B--------------------------------0-0-0-0-0-0-0-0--|
G--6-6-6-6-6-6-6-----------------0-0-0-0-0-0-0-0--| x2
D--6-6-6-6-6-6-6--7-7-7-7-7-7-7--2-2-2-2-2-2-2-2--|
A--4-4-4-4-4-4-4--7-7-7-7-7-7-7--2-2-2-2-2-2-2-2--|
E-----------------5-5-5-5-5-5-5--0-0-0-0-0-0-0-0--|

e----------------|
B----------------|
G--9-9-9-9-9-9---|
D--9-9-9-9-9-9---|
A--8-8-8-8-8-8---|
E----------------|


e---------------------------------------|
B---------------------------------------|
G-----------4-4-4-4--9-9-9-9--6-6-6-6---| x3
D--4-4-4-4--4-4-4-4--9-9-9-9--6-6-6-6---|
A--4-4-4-4--2-2-2-2--7-7-7-7--4-4-4-4---|
E--2-2-2-2------------------------------|


e------------------------------------|
B------------------------------------|
G------------------------------------|
D--7-7-7-7-7-7-7-7--9-9-9-9-9-9-9-9--|
A--7-7-7-7-7-7-7-7--9-9-9-9-9-9-9-9--|
E--5-5-5-5-5-5-5-5--7-7-7-7-7-7-7-7--|


e--------------------------------------------------------------|
B--------------------------------------------------------------|
G--------------------9-9-9-9--6-6-6-6--------------------------|
D--7-7-7-7--9-9-9-9--9-9-9-9--6-6-6-6----7-7-7-7--4-4-4-4--9~--|
A--7-7-7-7--9-9-9-9--7-7-7-7--4-4-4-4----7-7-7-7--4-4-4-4--9~--|
E--5-5-5-5--7-7-7-7----------------------5-5-5-5--2-2-2-2--7~--|
comments
We did not receive enough feedback on this tab! Please rate:
print report bad tab
1 2 3 4 5
I want to post or [tab]
guest
You may want to rate the tab now too:
select rating
Please do not post tabs as comments. Select "correction" instead!