Oops, an error
Loading. Please wait.

Half-Empty Halls Chords

10 views 1 this week
no commentswrite comment
1 2 3 4 5
3 more votes to show rating
add to favorites
launch autoscroll
font size
0
reset
transpose
0
reset
display chords
guitar tuner
Autoscroll
slow
fast
+/-
esc
set tempo
stop
Help us to improve Ultimate-Guitar.com Take our survey!
×
Author
Difficulty
intermediate
[Intro]
e|------------------------------------|-----------|--------8~~-|-10b-10-8-10-8---------------------|
B|-----------7-8-7--------------------|-------8~~-|---8-10-----|---------------10-8----8-10b-10b-8-|
G|-------7h9-------9-9b~~p7h9-7-------|-7h9p7-----|-9----------|---------------------9-------------|
D|-5/7h9------------------------9-7-9-|-----------|------------|-----------------------------------|
A|------------------------------------|-----------|------------|-----------------------------------|
E|------------------------------------|-----------|------------|-----------------------------------|

Play these chords under the tab:
G F C D

Then:
G C
G C

[Verse 1]
G                                C
Sooner or later you're gonna be playing in
G
Half empty halls, half empty halls
D
Sooner or later your dream will crash in
G
Half empty halls, half empty halls
G                                     C
Sooner or later your shtik will wear thin in
G
Half empty halls, half empty halls
D
Sooner or later I don't know where to begin in
G
Half empty halls, half empty halls

Riff:
e|--------------------|--------------|
B|--------------------|--------------|
G|-7~~-5h7bp5---5-----|--------------|
D|------------7---7p5-|-5-7b-5-------|
A|--------------------|--------7p5~~-|
E|--------------------|--------------|

Chords under riff:
G C
G C

[Verse 2]
G                               C
Sooner or later your green will show in
G
Half empty halls, half empty halls
D
Sooner or later you're really gonna blow in
G
Half empty halls, half empty halls
G                                     C
Sooner or later the booze will taste bad in
G
Half empty halls, half empty halls
D
Sooner or later you're gonna feel bad
G
Half empty halls, half empty halls

[Chorus]
C
Capitalize the moment
D
Don't answer their calls
F
It's awfully Goddamn big
D
In a half empty hall

Repeat intro, then:

[Outro]
G
Half empty halls, half empty halls
G                            C
Half empty halls, half empty halls
G                            C
Half empty halls, half empty halls
G                            C
Half empty halls, half empty halls
(to fadeout)
Suggest correction
Give kudos to tab author, rate the tab!
1 2 3 4 5
comments
print report bad tab
guest
You may want to rate the tab now too:
select rating
Wanna post a correction for this tab? Suggest correction