Oops, an error
Loading. Please wait.

Walk Right Back Chords

version 4
version 4

Whole song

Interactive

12,948 views 51 this week
no commentswrite comment
1 2 3 4 5
excellent!
x 5
add to favorites
launch autoscroll
font size
0
reset
transpose
0
reset
simplify chords
display chords
guitar tuner
Autoscroll
slow
fast
+/-
esc
set tempo
stop
Help us to improve Ultimate-Guitar.com Take our survey!
×
Author
Difficulty
Capo
intermediate
4th fret
About this tab version
Well-aligned and complete chords for all parts of the song / tabs for the lick. Was this info helpful? Yes No
---------------------------------------------------------------------------
                Walk Right Back - The Everly Brothers
---------------------------------------------------------------------------
Tabbed by: maguri
Tuning: Standard

The Everly Brothers 
Walk Right Back (1961)
(Sonny Curtis)


---------------------------------------------------------------------------
Capo 4th fret

Lick 1 (A)
 [A      A6      Amaj7  A6  Amaj7 A6]
e|----0---2-------|4---4-2---4-2---|
B|----2---2-------|2---2-2---2-2---|
G|----2---2-------|2---2-2---2-2---|
D|----2---2-------|2---2-2---2-2---|
A|0---------------|----------------|
E|----------------|----------------|

Lick (E)
 [E      Esus2    E   E Esus2 E Esus2]
e|----x---x-------|4---4-x---4-x---|
B|----5---7-------|5---5-7---5-7---|
G|----4---4-------|4---4-4---4-4---|
D|----6---6-------|6---6-6---6-6---|
A|x---------------|x---------------|
E|0---------------|0---------------|


Lick (D F#7 - Bm)
      D  F#7      Bm       Bm6 Bm
e|----2---0-------|2---2-2---4-2---|
B|----3---2-------|3---3-3---3-3---|
G|----2---3-------|4---4-4---4-4---|
D|0---------------|----------------|
A|----------------|2---------------|
E|----------------|----------------|

---------------------------------------------------------------------------


Capo 4th fret


INTRO
| A | % | % | % |
Lick 1 (2x)

  A [Lick 1)                  A [Lick 1]
I want you to tell me why you   walked out on me
A[Lick 1]             E [Lick 2]
I'm so lonesome every day
  E [Lick 2]                      E [Lick 2]
I want you to know that since you   walked out on me
E [Lick 2]                       A [Lick 1]
Nothing seems to be the same old way
A [Lick 1]                          A [Lick 1]
Think about the love that burns within my heart for you
         A [Lick 1]                    D    F#7   Bm [Lick 3]
The good times we had before you went away, oh    me

D
Walk right back to me this minute
A
 Bring your love to me, don't send it
E [Lick 2]            [A (Lick 1)]
I'm so lonesome every day

INTRO
| A | % | % | % |
Lick 1 (2x)

  A [Lick 1)                  A [Lick 1]
I want you to tell me why you   walked out on me
A[Lick 1]             E [Lick 2]
I'm so lonesome every day
  E [Lick 2]                      E [Lick 2]
I want you to know that since you   walked out on me
E [Lick 2]                       A [Lick 1]
Nothing seems to be the same old way
A [Lick 1]                          A [Lick 1]
Think about the love that burns within my heart for you
         A [Lick 1]                    D    F#7   Bm [Lick 3]
The good times we had before you went away, oh    me

D
Walk right back to me this minute
A
 Bring your love to me, don't send it
E [Lick 2]            A [Lick 1]
I'm so lonesome every day
E [Lick 2]            A [Lick 1]
I'm so lonesome every day
(repeat and FADE)
Suggest correction
comments
print report bad tab
guest
You may want to rate the tab now too:
select rating
Please do not post tabs as comments. Select "correction" instead!