Oops, an error
Loading. Please wait.

Dear Enemy tab

1,037 views 1 this week
1 commentread comment
1 2 3 4 5
1 last vote to show rating
add to favorites
×
Save as Personal and add changes to this tab that will be seen only by you. Learn more ›
×
You can save this tab as Personal to edit and correct it or add notes. All changes will be seen only by you. Learn more »
launch autoscroll
font size
0
reset
how to read this tab
guitar tuner
edit
Autoscroll
slow
fast
+/-
esc
set tempo
stop
Band- Exies
Song- Dear Enemy

Intro (0:00 - 0:32)
Guitar 1
|------------------|
|------------------|
|-9999999999992457-	X8
|------------------|
|------------------|
|------------------|

Guitar 2
|Rest
|Rest
|Rest	X8
|Rest
|Rest
|Rest


Bridge (0:32 - 0:48)
Guitar 1
|------------------|
|------------------|
|-9999999999992457-	X4
|------------------|
|------------------|
|------------------|

Guitar 2
|------------------|
|------------------|
|-9999999999999999-	X4
|------------------|
|------------------|
|------------------|


Chorus (0:48 - 1:05)
Guitar 1
|Rest
|Rest
|Rest	X4
|Rest
|Rest
|Rest

Guitar 2
|-----------------   -----------------   -----------------   ----------------|
|-----------------   -----------------   -----------------   ----------------|
|----------------- > ----------------- > ----------------- > ----------------|
|-77-333-2202-020- > -777-33-2202-020- > -77-333-2202-020- > -777-33-22-22-2-|
|-77-333-2202-020-   -777-33-2202-020-   -77-333-2202-020-   -777-33-22-22-2-|
|-77-333-2202-020-   -777-33-2202-020-   -77-333-2202-020-   -777-33-22-22-2-|


Afterword (1:05 - 1:12)
Guitar 1
|Rest
|Rest
|Rest   X2
|Rest
|Rest
|Rest

Guitar 2
|------------------|
|------------------|
|------------------|
|------------------|
|----7---7---7---7-|
|--77-733-755-766--|


Intro 2nd Time (1:12 - 1:29)
Guitar 1
|------------------|
|------------------|
|-9999999999992457-	X4
|------------------|
|------------------|
|------------------|

Guitar 2
|Rest
|Rest
|Rest	X4
|Rest
|Rest
|Rest


Bridge 2nd Time (1:29 - 1:46)
Guitar 1
|------------------|
|------------------|
|-9999999999992457-	X4
|------------------|
|------------------|
|------------------|

Guitar 2
|------------------|
|------------------|
|-9999999999999999-	X4
|------------------|
|------------------|
|------------------|


Chorus 2nd Time (1:46 - 2:02)
Guitar 1
|Rest
|Rest
|Rest	X4
|Rest
|Rest
|Rest

Guitar 2
|-----------------   -----------------   -----------------   ----------------|
|-----------------   -----------------   -----------------   ----------------|
|----------------- > ----------------- > ----------------- > ----------------|
|-77-333-2202-020- > -777-33-2202-020- > -77-333-2202-020- > -777-33-22-22-2-|
|-77-333-2202-020-   -777-33-2202-020-   -77-333-2202-020-   -777-33-22-22-2-|
|-77-333-2202-020-   -777-33-2202-020-   -77-333-2202-020-   -777-33-22-22-2-|


Solo (2:02 - 2:24)
Guitar 1
|------------|
|------------|
|-9999999999-	X(till last note in solo)
|------------|
|------------|
|------------|

Guitar 2
|-5-5-4-5-4-5-5-4-3-4-5-5-5-5-5-8-7-6---13-13-12-12-----------|
|---------------------------------------------------5-1-1-3-5-|
|-------------------------------------------------------------| >
|-------------------------------------------------------------| >
|-------------------------------------------------------------|
|-------------------------------------------------------------|

|-13-13-12-12---5-4-4-5-5-7-5-8-7-10-8-11-12-13-|
|-----------------------------------------------|
|-----------------------------------------------|
|-----------------------------------------------|
|-----------------------------------------------|
|-----------------------------------------------|


Big Rest (2:24-2:43)
Guitar 1
|Rest
|Rest
|Rest	X24
|Rest
|Rest
|Rest

Guitar 2
|Rest
|Rest
|Rest	X24
|Rest
|Rest
|Rest


Build (2:45 - 2:59)
Guitar 1
|----------|
|----------|
|-99999999-	X4
|----------|
|----------|
|----------|

Guitar 2
|Rest
|Rest
|Rest	X4
|Rest
|Rest
|Rest


Chorus 3rd time (2:59 - 3:32)
Guitar 1
|-----------------   -----------------   -----------------   ----------------|
|-----------------   -----------------   -----------------   ----------------|
|----------------- > ----------------- > ----------------- > ----------------| >
|-77-333-2202-020- > -777-33-2202-020- > -77-333-2202-020- > -777-33-22-22-2-| >
|-77-333-2202-020-   -777-33-2202-020-   -77-333-2202-020-   -777-33-22-22-2-|
|-77-333-2202-020-   -777-33-2202-020-   -77-333-2202-020-   -777-33-22-22-2-|

|------------------|
|------------------|
|-9999999999992457-	X4
|------------------|
|------------------|
|------------------|

Guitar 2
|-----------------   -----------------   -----------------   ----------------|
|-----------------   -----------------   -----------------   ----------------|
|----------------- > ----------------- > ----------------- > ----------------|	X2
|-77-333-2202-020- > -777-33-2202-020- > -77-333-2202-020- > -777-33-22-22-2-|
|-77-333-2202-020-   -777-33-2202-020-   -77-333-2202-020-   -777-33-22-22-2-|
|-77-333-2202-020-   -777-33-2202-020-   -77-333-2202-020-   -777-33-22-22-2-|


Afterword 2nd Time (3:32 - 3:52)
Guitar 1
|Rest
|Rest
|Rest	X4
|Rest
|Rest
|Rest

Guitar 2
|------------------|
|------------------|
|------------------|	X4
|------------------|
|----7---7---7---7-|
|--77-733-755-766--|

            
            
Suggest correction
Creating personal tab
Creating personal tab
You can edit any tab online and save it as your Personal.

You can edit, replace or remove any tab part or add personal notes – all changes will be seen only by you.

Personal tabs can be accessed anytime from any device, even offline.
Learn more »
Give kudos to tab author, rate the tab!
1 2 3 4 5
comments
print report bad tab
1 comment total.
0 reply
BesserPunk 34 Nov 12, 2006 01:33 AM

Intro should be one note down... (also easier to play it that way:)

G| 888888888888------6-
D| ------------ 6-8-9--

guest
You may want to rate the tab now too:
select rating
Wanna post a correction for this tab? Suggest correction