Oops, an error
Loading. Please wait.

Fsos tab

785 views 1 this week
3 commentsread comments
1 2 3 4 5
x 4
add to favorites
×
Save as Personal and add changes to this tab that will be seen only by you. Learn more ›
×
You can save this tab as Personal to edit and correct it or add notes. All changes will be seen only by you. Learn more »
launch autoscroll
font size
0
reset
how to read this tab
guitar tuner
edit
Autoscroll
slow
fast
+/-
esc
set tempo
stop
Author
Song:  F.S.O.S.
Album: Head For The Door
Band:  The Exies
mrFood Tabbed it!

Tuning: Standard

Distorted Throughout

Intro/Main Riff (0:01) (/=Slide):
e|--------------------------------------|
B|--------------------------------------|
G|--------------------------------------|
D|-----------------------------8-8-8-8--|
A|--5-5-5-/4/3-3-3-/5/8-8-8-8--6-6-6-6--|
E|--3-3-3-/2/1-1-1-/3/6-6-6-6-----------|

Pre-Chorus (0:16, 1:08, 1:45) (/=Slide):
e|-----------------------------------------------------|
B|-----------------------------------------------------|
G|-----------------------------------------------------|
D|--8-8-8-8-8-8-8-8-8-8-8-8-8-8-8-8/5-5-5-5-5-5-5-5-5--|
A|--6-6-6-6-6-6-6-6-6-6-6-6-6-6-6-6/3-3-3-3-3-3-3-3-3--|
E|-----------------------------------------------------|

Chorus (0:23, 1:16, 2:00) (/=Slide):
e|--------------------------------------|
B|--------------------------------------|
G|--------------------------------------|
D|-----------------------------8-8-8-8--|
A|--5-5-5-/4/3-3-3-/5/8-8-8-8--6-6-6-6--|
E|--3-3-3-/2/1-1-1-/3/6-6-6-6-----------|

Post-Chorus 1 (0:38):
e|---------------|
B|---------------|
G|---------------|
D|---------------|
A|---------------|
E|--3-3-3--2--1--|

Post-Chorus 2 (0:46, 2:30):
e|-----------------------|
B|-----------------------|
G|-----------------------|
D|-----------------------|
A|--5-5-5--4--3-3--8--0--|
E|--3-3-3--2--1-1--6--0--|

Verse (0:53) (/=Slide. ~=Let Note Ring):
e|--------------------------------------|
B|--------------------------------------|
G|--------------------------------------|
D|--------------------------------------|
A|----------------------------6-6-6-----|
E|--3~~3~~/2/1~~1~~/3/6~~6~~0-------6/--|

Solo (1:31) (^=Bend, ~=Let Note Ring) (w/Wah):
 |-------------------------Vibrato|~~~|
e|--------------------------------|---|
B|--------------------------------v---|
G|--0~~~~3~~5-3-5^(1/2)--0-0--5~3~5~~~|
D|------------------------------------|
A|------------------------------------|
E|------------------------------------|

Song Progression
-Intro/Main Riff..(0:01)
-Pre-Chorus.......(0:16)
-Chorus...........(0:23)
-Post-Chorus 1....(0:38)
-Post-Chorus 2....(0:46)
-Verse............(0:53)
-Pre-Chorus.......(1:08)
-Chorus...........(1:16)
-Solo.............(1:31)
-Pre-Chorus.......(1:45)
-Chorus...........(2:00)
-Post-Chorus 2....(2:30)

            
            
Suggest correction
Creating personal tab
Creating personal tab
You can edit any tab online and save it as your Personal.

You can edit, replace or remove any tab part or add personal notes – all changes will be seen only by you.

Personal tabs can be accessed anytime from any device, even offline.
Learn more »
comments
print report bad tab
3 comments total.
0 reply
Luedinski 10 Nov 01, 2007 03:01 AM

I think the tuing is drop C:
D|--------------------------------------|
A|--------------------------------------|
F|--------------------------------------|
C|-----------------------------10101010-|
G|--5-5-5-/4/3-3-3-/5/8-8-8-8--8-8-8-8--|
C|--3-3-3-/2/1-1-1-/3/6-6-6-6-----------|
And so on...

0 reply
foofighters4eva 10 Apr 09, 2009 08:46 AM

the tuning is drop c. this isnt totally wrong, but most is. start riff goes:

D|-----------------------------------|
A|-----------------------------------|
F|---------------------------6-6-6-6-|
C|---------------------------6-6-6-6-|
G|-3-3-3-2\1-1-1-/3/6-6-6-6--4-4-4-4-|
C|-3-3-3-2\1-1-1-/3/6-6-6-6----------|

im gonna re-tab the whole song.

0 reply
foofighters4eva 10 Dec 08, 2009 09:50 AM

exies play in drop db so just move each not down a fret

guest
You may want to rate the tab now too:
select rating
Wanna post a correction for this tab? Suggest correction