Oops, an error
Loading. Please wait.

Hey You bass

version 2
version 2

Whole song

Interactive

759 views 1 this week
no commentswrite comment
1 2 3 4 5
2 more votes to show rating
add to favorites
×
Save as Personal and add changes to this tab that will be seen only by you. Learn more ›
×
You can save this tab as Personal to edit and correct it or add notes. All changes will be seen only by you. Learn more »
launch autoscroll
font size
0
reset
guitar tuner
backing track
0:00
0:00
edit
Autoscroll
slow
fast
+/-
esc
set tempo
stop
Author
Difficulty
The earlier version of this tab seems incorrect so I wrote my own. The person that 
it the first time decided to argue, so even if he rates mine a 1* my tab is better than his. ;D

Special Tuning: Half-Step D-tuned.

The Exies:
Hey You

The entire bass line for this song is coupled with some kind of fuzz distortion, I use a 
DigiTech Fuzz peddle and it sounds fine.

Intro/verse:   00:00-00:46
Gb|------------------------|
Db|------------------------|
Ab|-2-----2----------(0)---| x20
Db|---0-0---0-0-2-2-0-6-0--|
                       ^ Open Ab, maybe even 5th fret on the Db string sounds good also


Chorus:
Gb|-------------------------------------|------------|
Db|-------------------------------------|------------|
Ab|-----------------22222222-0h2-222222-|------------|x1
Eb|-5555555-2222222---------------------|-777777/-0~-|

Then the verse again I think 16 times, is how many I counted. Then to chorus

Chorus 2:
Gb|-------------------------------------|-----------------------------------------------|
Db|-------------------------------------|-----------------------------------------------|
Ab|(0000000)--------22222222-0h2-222222-|(000000)---------222222-0h2-2222222(0000000)---|
Eb|-7777777-2222222---------------------|-777777/-2222222--------------------7777777/2~-|

Some more Verse, chorus 2, then the verse till the end.

            
            
Suggest correction
Creating personal tab
Creating personal tab
You can edit any tab online and save it as your Personal.

You can edit, replace or remove any tab part or add personal notes – all changes will be seen only by you.

Personal tabs can be accessed anytime from any device, even offline.
Learn more »
Give kudos to tab author, rate the tab!
1 2 3 4 5
comments
print report bad tab
guest
You may want to rate the tab now too:
select rating
Wanna post a correction for this tab? Suggest correction