Oops, an error
Loading. Please wait.

Hey You tab

version 2
version 2

Whole song

Interactive

3,320 views 3 this week
6 commentsread comments
1 2 3 4 5
x 13
add to favorites
×
Save as Personal and add changes to this tab that will be seen only by you. Learn more ›
×
You can save this tab as Personal to edit and correct it or add notes. All changes will be seen only by you. Learn more »
launch autoscroll
font size
0
reset
how to read this tab
guitar tuner
backing track
0:00
0:00
edit
Autoscroll
slow
fast
+/-
esc
set tempo
stop
Tuning drop D-flat
JS

*= palm mute
^= Artificial harmonic
/= Slide Up
intro:chorus whith a little distortion and delay
eb/--------------|--|--------------|--|
Bb/--------------|--|--------------|--|
Gb/----8h9----8h9|x2|--------------|x2|
Db/--7------7----|--|--7-let-ring--|--|
Ab/-9------9-----|--|-9------------|--|
Db/--------------|--|--------------|--|
                      your life, mislaid
                      spoon fed, well raised
verse:mute the whole thing, distorted
eb/-------------------|--|
Bb/-------------------|--|
Gb/-------------------|x4|
Db/-9-00-9-0022006-00-|--|
Ab/-9-00-9-0022006-00-|--|
Db/-9-00-9-0022006-00-|--|
    * ** * ******* **
Hey you your nodding out
Whats this all about

Pre Chorus:Wide open bitches
eb/-------------------|--|
Bb/-------------------|--|
Gb/-------------------|x4|
Db/-9-00-9-00220-6-0--|--|
Ab/-9-00-9-00220-6-0--|--|
Db/-9-00-9-00220-6-0--|--|
HEY YOU, HEY YOU whats this

Chorus:distorted
eb/------------------------------------------------|--|
Bb/-888--------555--------12----------12-----------|--|
Gb/-777--------444--------11----------11-----------|x2|
Db/-555--------222--------9-----------9------------|--|
Ab/-555--------222--------9-----------9------------|--|
Db/-555--------222--------9-----------9------------|--|
    now        goin down  goin down   are you sorry now goin down why do you wanna die

Solo:I kinda tweaked this to my own liking, do all artificial harmonics on the first
down strokes hitting with pick and tip of thumb at the same time shakin the hell out of the
one) and the 2nd part is actually an octave down but i thought it complimented the 
nicely.
eb/------------------|--|   eb/-----------------------------|--|
Bb/------------------|--|   Bb/-----------------------------|--|
Gb/-----898-----898~~|x2|   Gb/-----16----16----------------|x4|
Db/--7-9---7-7-9-----|--|   Db/-1619--1619--1619------------|--|
Ab/-9-------9--------|--|   Ab/-----------------191819-19-18|--|
Db/------------------|--|   Db/-----------------------------|--|
    ^^ ^^^^^^^ ^^^^

my first tab tell me how i did

            
            
Suggest correction
Creating personal tab
Creating personal tab
You can edit any tab online and save it as your Personal.

You can edit, replace or remove any tab part or add personal notes – all changes will be seen only by you.

Personal tabs can be accessed anytime from any device, even offline.
Learn more »
comments
print report bad tab
6 comments total. Showing first comments.
0 reply
dostacysmom69 31 Sep 19, 2006 02:00 PM

VERY impressed, nice job with everything on this one

0 reply
dostacysmom69 31 Sep 19, 2006 02:05 PM

oh yeah, those aren't artificial harmonics...play the notes regularly

0 reply
FadedTorment 10 Jun 26, 2007 07:26 AM

Awesome! Congrats on poppin the cherry! Been playin for a while and for a first timer this is pretty damn good...Nice on the solo; I tried it out, and carved it up...SWEET!

guest
You may want to rate the tab now too:
select rating
Wanna post a correction for this tab? Suggest correction