Oops, an error
Loading. Please wait.

Hey You tab

version 3
version 3

Whole song

Interactive

9,880 views 1 this week
3 commentsread comments
1 2 3 4 5
x 6
add to favorites
×
Save as Personal and add changes to this tab that will be seen only by you. Learn more ›
×
You can save this tab as Personal to edit and correct it or add notes. All changes will be seen only by you. Learn more »
launch autoscroll
font size
0
reset
how to read this tab
guitar tuner
backing track
0:00
0:00
edit
Autoscroll
slow
fast
+/-
esc
set tempo
stop
Author
Difficulty
I noticed some people had pretty good tabs, but I didn't get the full versions. This is 
everyone who needs a good one.

PM----\ - Palm Mute
+----\ - Artificial Harmonics
/ - Slide Up
h - Hammer-On
p – Pull-off
* - Scrape Pick Along Strings

Intro
eb|---------------------|---------------------|
Bb|---------------------|---------------------|
Gb|-----8h9~8-----8h9~8-|-----8h9~8-----8h9~8-|
Db|---7---------7-------|---7---------7-------|
Ab|-9---------9---------|-9---------9---------|
Db|---------------------|---------------------|

Verse
eb|-------------------|---------------xx-|
Bb|-------------------|---------------xx-|
Gb|-------------------|---------------xx-|
Db|---9~~~~~~~~~~~~---|---9~~~~~~~~~~~xx-|
Ab|-7~~~~~~~~~~~~~~---|-7~~~~~~~~~~~~~xx-|
Db|-------------------|---------------xx-|

Pre-Chorus
   PM------------------------------------\--|
eb|-------------------|---------------------|
Bb|-------------------|---------------------|
Gb|-------------------|---------------------|
Db|-------------------|---------------------|
Ab|-9-00-9-0022006-00-|-9-00-9-0022006-00---|
Db|-9-00-9-0022006-00-|-9-00-9-0022006-00---|

   PM---------------------------------\--|
eb|-------------------|------------------|
Bb|-------------------|------------------|
Gb|-------------------|------------------|
Db|-------------------|------------------|
Ab|-9-00-9-0022006-00-|-9-00-9-0022006---|
Db|-9-00-9-0022006-00-|-9-00-9-0022006---|

Chorus
eb|-------------------|-------------------|
Bb|-------------------|-------------------|
Gb|-------------------|-------------------|
Db|-9-00-9-0-22-0-6-0-|-9-00-9-0-22—0-6-0-|
Ab|-9-00-9-0-22-0-6-0-|-9-00-9-0-22-0-6-0-|
Db|-9-00-9-0-22-0-6-0-|-9-00-9-0-22-0-6-0-|

eb|-------------------|-------------------|
Bb|-------------------|-------------------|
Gb|-------------------|-------------------|
Db|-9-00-9-0-22-0-6-0-|-9-00-9-0-22—0-6-0-|
Ab|-9-00-9-0-22-0-6-0-|-9-00-9-0-22-0-6-0-|
Db|-9-00-9-0-22-0-6-0-|-9-00-9-0-22-0-6-0-|

Bridge
eb|---------|---------|----------------------------------------------|
Bb|-8~8~8~~-|-5~5~5~~-|----12~12~12~1212~12~12~12~12~1212121212~12~~-|
Gb|-7~7~7~~-|-4~4~4~~-|----11~11~11~1111~11~11~11~11~1111111111~11~~-|
Db|-5~5~5~~-|-2~2~2~~-|-----9~-9~-9~-9-9~-9~-9~-9~-9~-9-9-9-9-9~-9~~-|
Ab|-5~5~5~~-|-2~2~2~~-|-----9~-9~-9~-9-9~-9~-9~-9~-9~-9-9-9-9-9~-9~~-|
Db|-5~5~5~~-|-2~2~2~~-|-----9~-9~-9~-9-9~-9~-9~-9~-9~-9-9-9-9-9~-9~~-|

eb|---------|---------|---------------------|
Bb|-8~8~8~~-|-5~5~5~~-|----12~12~12~~-------|
Gb|-7~7~7~~-|-4~4~4~~-|----11~11~11~~-------|
Db|-5~5~5~~-|-2~2~2~~-|-----9~-9~-9~~-------|
Ab|-5~5~5~~-|-2~2~2~~-|-----9~-9~-9~~-------|
Db|-5~5~5~~-|-2~2~2~~-|-----9~-9~-9~~-------|
eb|-------------------|---------------------|
Bb|-------------------|---------------------|
Gb|-------------------|---------------------|
Db|-9-00-9-0-22-0-6-0-|-9-00-9-0-22—0-6-0---|
Ab|-9-00-9-0-22-0-6-0-|-9-00-9-0-22-0-6-0---|
Db|-9-00-9-0-22-0-6-0-|-9-00-9-0-22-0-6-0---|

eb|-------------------|-------------------|
Bb|-------------------|-------------------|
Gb|-------------------|-------------------|
Db|-9-00-9-0-22-0-6-0-|-9-00-9-0-22—0-6-0-|
Ab|-9-00-9-0-22-0-6-0-|-9-00-9-0-22-0-6-0-|
Db|-9-00-9-0-22-0-6-0-|-9-00-9-0-22-0-6-0-|

Verse
eb|----------------xx-|------------------|
Bb|----------------xx-|------------------|
Gb|----------------xx-|------------------|
Db|---9~~~~~~~~~~~~xx-|---9~~~~~~~~~~~~/-|
Ab|-7~~~~~~~~~~~~~~xx-|-7~~~~~~~~~~~~~~/-|
Db|----------------xx-|------------------|

Pre-chorus
   PM------------------------------------\--|
eb|-------------------|---------------------|
Bb|-------------------|---------------------|
Gb|-------------------|---------------------|
Db|-------------------|---------------------|
Ab|-9-00-9-0022006-00-|-9-00-9-0022006-00---|
Db|-9-00-9-0022006-00-|-9-00-9-0022006-00---|

   PM--------------------------------\------------|
eb|-------------------|---------------------------|
Bb|-------------------|---------------------------|
Gb|-------------------|---------------------------|
Db|-------------------|---------------------------|
Ab|-9-00-9-0022006-00-|-9-00-9-002200--********---|
Db|-9-00-9-0022006-00-|-9-00-9-002200--********---|

Chorus
eb|-------------------|-------------------|
Bb|-------------------|-------------------|
Gb|-------------------|-------------------|
Db|-9-00-9-0-22-0-6-0-|-9-00-9-0-22—0-6-0-|
Ab|-9-00-9-0-22-0-6-0-|-9-00-9-0-22-0-6-0-|
Db|-9-00-9-0-22-0-6-0-|-9-00-9-0-22-0-6-0-|

eb|-------------------|-------------------|
Bb|-------------------|-------------------|
Gb|-------------------|-------------------|
Db|-9-00-9-0-22-0-6-0-|-9-00-9-0-22—0-6-0-|
Ab|-9-00-9-0-22-0-6-0-|-9-00-9-0-22-0-6-0-|
Db|-9-00-9-0-22-0-6-0-|-9-00-9-0-22-0-6-0-|

Bridge
eb|---------|---------|-------------------------------------|
Bb|-8~8~8~~-|-5~5~5~~-|----12~12~12~1212~12~12~12~12~1212~~-|
Gb|-7~7~7~~-|-4~4~4~~-|----11~11~11~1111~11~11~11~11~1111~~-|
Db|-5~5~5~~-|-2~2~2~~-|-----9~-9~-9~-9-9~-9~-9~-9~-9~-9-9~~-|
Ab|-5~5~5~~-|-2~2~2~~-|-----9~-9~-9~-9-9~-9~-9~-9~-9~-9-9~~-|
Db|-5~5~5~~-|-2~2~2~~-|-----9~-9~-9~-9-9~-9~-9~-9~-9~-9-9~~-|

eb|---------|---------|---------------|
Bb|-8~8~8~~-|-5~5~5~~-|----12~12~12~~-|
Gb|-7~7~7~~-|-4~4~4~~-|----11~11~11~~-|
Db|-5~5~5~~-|-2~2~2~~-|-----9~-9~-9~~-|
Ab|-5~5~5~~-|-2~2~2~~-|-----9~-9~-9~~-|
Db|-5~5~5~~-|-2~2~2~~-|-----9~-9~-9~~-|

eb|-------------------|-------------------|
Bb|-------------------|-------------------|
Gb|-------------------|-------------------|
Db|-9-00-9-0-22-0-6-0-|-9-00-9-0-22—0-6-0-|
Ab|-9-00-9-0-22-0-6-0-|-9-00-9-0-22-0-6-0-|
Db|-9-00-9-0-22-0-6-0-|-9-00-9-0-22-0-6-0-|

eb|-------------------|----------------------|
Bb|-------------------|----------------------|
Gb|-------------------|----------------------|
Db|-9-00-9-0-22-0-6-0-|-9-00-9-0-22—0-6-0----|
Ab|-9-00-9-0-22-0-6-0-|-9-00-9-0-22-0-6-0-**-|
Db|-9-00-9-0-22-0-6-0-|-9-00-9-0-22-0-6-0-**-|

Solo
eb|----------------------|-----------------------|
Bb|----------16h17p16----|----------16h17-16h17~-|
Gb|----14-16----------16-|----14-16--------------|
Db|-16-------------------|-16--------------------|
Ab|----------------------|-----------------------|
Db|----------------------|-----------------------|

eb|----------------------|-----------------------|
Bb|----------16h17p16----|----------16h17-16h17~-|
Gb|----14-16----------16-|----14-16--------------|
Db|-16-------------------|-16--------------------|
Ab|----------------------|-----------------------|
Db|----------------------|-----------------------|

eb|----17-19----17-19----------------------|
Bb|-19-------19-------19-18-18p17h18-17-18-|
Gb|----------------------------------------|
Db|----------------------------------------|
Ab|----------------------------------------|
Db|----------------------------------------|

eb|----17-19----17-19--------------------|
Bb|-19-------19-------19-18-18p17h18-17~-|
Gb|--------------------------------------|
Db|--------------------------------------|
Ab|--------------------------------------|
Db|--------------------------------------|

eb|----17-19----17-19----------------------|
Bb|-19-------19-------19-18-18p17h18-17-18-|
Gb|----------------------------------------|
Db|----------------------------------------|
Ab|----------------------------------------|
Db|----------------------------------------|

eb|----17-19----17-19--------------------|
Bb|-19-------19-------19-18-18p17h18-17~-|
Gb|--------------------------------------|
Db|--------------------------------------|
Ab|--------------------------------------|
Db|--------------------------------------|

eb|---------|
Bb|---------|
Gb|---------|
Db|-9~~~----|
Ab|-9~~~----|
Db|-9~~~----|

Cooldown
eb|-----------------|------------------|
Bb|-----------------|------------------|
Gb|-----------------|------------------|
Db|----9~~~~~~~~~~~-|---9~~~~~~~~~~~~~-|
Ab|--7~~~~~~~~~~~~~-|-7~~~~~~~~~~~~~~~-|
Db|-----------------|------------------|

eb|-----------------|-----------------|
Bb|-----------------|-----------------|
Gb|-----------8h9-8-|-----------8h9-8-|
Db|-----------------|-----------------|
Ab|-9-00-9-00-------|-9-00-9-00-------|
Db|-9-00-9-00-------|-9-00-9-00-------|

eb|-----------------|-------------------|
Bb|-----------------|-------------------|
Gb|-----------8h9-8-|-------------------|
Db|-----------------|--------------12~~-|
Ab|-9-00-9-00-------|-9-00-9-00----12~~-|
Db|-9-00-9-00-------|-9-00-9-00----12~~-|

Chorus
eb|-------------------|-------------------|
Bb|-------------------|-------------------|
Gb|-------------------|-------------------|
Db|-9-00-9-0-22-0-6-0-|-9-00-9-0-22—0-6-0-|
Ab|-9-00-9-0-22-0-6-0-|-9-00-9-0-22-0-6-0-|
Db|-9-00-9-0-22-0-6-0-|-9-00-9-0-22-0-6-0-|

eb|-------------------|-------------------|
Bb|-------------------|-------------------|
Gb|-------------------|-------------------|
Db|-9-00-9-0-22-0-6-0-|-9-00-9-0-22—0-6-0-|
Ab|-9-00-9-0-22-0-6-0-|-9-00-9-0-22-0-6-0-|
Db|-9-00-9-0-22-0-6-0-|-9-00-9-0-22-0-6-0-|

Bridge
eb|---------|---------|-------------------------------------|
Bb|-8~8~8~~-|-5~5~5~~-|----12~12~12~1212~12~12~12~12~1212~~-|
Gb|-7~7~7~~-|-4~4~4~~-|----11~11~11~1111~11~11~11~11~1111~~-|
Db|-5~5~5~~-|-2~2~2~~-|-----9~-9~-9~-9-9~-9~-9~-9~-9~-9-9~~-|
Ab|-5~5~5~~-|-2~2~2~~-|-----9~-9~-9~-9-9~-9~-9~-9~-9~-9-9~~-|
Db|-5~5~5~~-|-2~2~2~~-|-----9~-9~-9~-9-9~-9~-9~-9~-9~-9-9~~-|

eb|---------|---------|---------------|
Bb|-8~8~8~~-|-5~5~5~~-|----12~12~12~~-|
Gb|-7~7~7~~-|-4~4~4~~-|----11~11~11~~-|
Db|-5~5~5~~-|-2~2~2~~-|-----9~-9~-9~~-|
Ab|-5~5~5~~-|-2~2~2~~-|-----9~-9~-9~~-|
Db|-5~5~5~~-|-2~2~2~~-|-----9~-9~-9~~-|

Outro
eb|----------------------|----------------------|
Bb|----------16h17p16----|----------16h17p16----|
Gb|----14-16----------16-|----14-16----------16-|
Db|-16-------------------|-16-------------------|
Ab|----------------------|----------------------|
Db|----------------------|----------------------|

eb|----------------------|--------------|
Bb|----------16h17p16----|--------------|
Gb|----14-16----------16-|----14-16-----|
Db|-16-------------------|-16-------220-|
Ab|----------------------|----------220-|
Db|----------------------|----------220-|

            
            
Suggest correction
Creating personal tab
Creating personal tab
You can edit any tab online and save it as your Personal.

You can edit, replace or remove any tab part or add personal notes – all changes will be seen only by you.

Personal tabs can be accessed anytime from any device, even offline.
Learn more »
comments
print report bad tab
3 comments total.
0 reply
Rikuthemaster 134 Dec 20, 2008 05:16 PM

This is one of the better tabs I've seen. Everything seems good on it.

Nice job. And thanks for helping me learn the song. :D

0 reply
BigTim72 110 Nov 09, 2011 08:17 PM

on the solo after the first part it should be

eb|-----17-19----17-19----------------------------------
Bb|--19-------19-------19-17p16h17-16-17----------------
Gb|----------------------------------------------------- x4
Db|-----------------------------------------------------
Ab|-----------------------------------------------------
Db|-----------------------------------------------------

and on the last time do this after the 17

Gb|--16b(bend fast at first then slowly)---

0 reply
BigTim72 110 Nov 09, 2011 08:23 PM

sorry i forgot to add the 17 after the last 19, should be

eb|-----17-19----17-19----17-------------------------
Bb|--19-------19-------19----17p16h17-16-17----------
Gb|-------------------------------------------------- x4
Db|--------------------------------------------------
Ab|--------------------------------------------------
Db|--------------------------------------------------

guest
You may want to rate the tab now too:
select rating
Wanna post a correction for this tab? Suggest correction