Oops, an error
Loading. Please wait.

Bowl For Two bass

version 2
version 2

Whole song

4,982 views 12 this week
no commentswrite comment
1 2 3 4 5
x 11
add to favorites
×
Save as Personal and add changes to this tab that will be seen only by you. Learn more ›
×
You can save this tab as Personal to edit and correct it or add notes. All changes will be seen only by you. Learn more »
launch autoscroll
font size
0
reset
guitar tuner
edit
Autoscroll
slow
fast
+/-
esc
set tempo
stop
Author
-----------------------------------------------------------------------------
                          The Expendables - Bowl For Two
-----------------------------------------------------------------------------

My first bass tab. Pretty simple bass line the toughest part is the bass solo fill-in 
during the instrumental. Enjoy!

| /  slide up
| \  slide down
| h  hammer-on

Intro
G|--------------------------------------------------------------------------|
D|--------------------------------------------------------------------------|
A|-----2--------------------------------------------------------------------|
E|--3-----0-----------------------------------------------------------------|


Chorus
G|--------------------------------------------------------------------------|
D|--------------------------5-----------------------------------------------|
A|--------0-2-2---------5h7---7h5-7-7h5-------------------------------------|
E|--3-3-3-------3-3-0-0-----------------7h5---------------------------------|


Verse
(NOTE: In the first 2 measures of the song, he doesn't play the open A note)
G|--------------------------------------------------------------------------|
D|--------------------------------------------------------------------------|
A|----0-2-------------------------------------------------------------------|
E|--3------3--0--0-0-2-2----------------------------------------------------|


Bridge
G|---|-----------------------5/7----------|---------------------------------|
D|---|---------------------5-----7\-------|---------------------------------|
A|-3-|-5h7-7-5h7-7--0-3-3-----------------|--5------------------------------|
E|---|------------------------------------|---------------------------------|


Solo Instrumental
(NOTE: Place your finger over the 5th fret on both the A and D strings during the hammer-on)
G|----|---------------------------------9-----------------------------------|
D|----|-----------------------5---5-7/9---9-9\5-----------------------------|
A|-7\-|-------0-2-2--------5h7-5h7--------------7-5------0-2----------------|
E|----|-3-3-3-------3-3-0-0------------------------3-3-3-----3-0-0----0-0-2-|
Suggest correction
Creating personal tab
Creating personal tab
You can edit any tab online and save it as your Personal.

You can edit, replace or remove any tab part or add personal notes – all changes will be seen only by you.

Personal tabs can be accessed anytime from any device, even offline.
Learn more »
comments
print report bad tab
guest
You may want to rate the tab now too:
select rating
Wanna post a correction for this tab? Suggest correction