Oops, an error
Loading. Please wait.

Minimum Wage bass

2,113 views 1 this week
1 commentread comment
1 2 3 4 5
x 4
add to favorites
×
Save as Personal and add changes to this tab that will be seen only by you. Learn more ›
×
You can save this tab as Personal to edit and correct it or add notes. All changes will be seen only by you. Learn more »
launch autoscroll
font size
0
reset
guitar tuner
edit
Autoscroll
slow
fast
+/-
esc
set tempo
stop
Author
Difficulty
------------------------------------------------------------------------
                MINIMUM WAGE - The Expendables
------------------------------------------------------------------------

Intro/Verse
G|--------------------------|-----------------------------------------|
D|----5-5-5-5------5-5-5-5--|-----------------------------------------|
A|--3----------3-3----------|----5-5-5-5------5-5-5-5-----------------|
E|--------------------------|--3----------3-3-------------------------|

G|--------------------------|-----------------------------------------|
D|--------------------------|----10-10-10-10--------------------------|
A|--------------------------|--8--------------8-8-7-5-7---------------|
E|--5--7-8-7-5--5--7-8-7-5--|-----------------------------------------|

Chorus                       (first 3 times)                (4th time)
G|--------------------------|------------------------------|----------|
D|--------------------------|------------------------------|--5-------|
A|----------7-7-7-----------|-------------3-3-3-3-5-5-5-5--|----------|
E|--5-5-3-5-----------------|--1--1-1-0-1------------------|----------|

Interlude
G|--------------------------------------------------------------------|
D|--------------------------------------------------------------------|
A|--3-(x16)-----------------------------------------------------------|
E|-----------3-(x16)--5-(x16)--1-(x16)--------------------------------|

They mix it up with two more lines and I don't know official music
terms, but I think you can figure it out...

Enigma #1
G|--------------------------------------------------------------------|
D|--------------------------------------------------------------------|
A|--3-5-7--5-7-8--7-8-10--8-------------------------------------------|
E|--------------------------------------------------------------------|

Enigma #2                    (first 3 times)                (4th time)
G|--------------------------|------------------------------|----------|
D|--------------------------|------------------------------|--5-------|
A|--------------------------|------------------------------|----------|
E|--5--5--------------------|--1--1------------------------|----------|

Outro
G|--------------------------------------------------------------------|
D|--------------------------------------------------------------------|
A|--8-7-5-7-3---------------------------------------------------------|
E|--------------------------------------------------------------------|

=======================================================================

            
            
Suggest correction
Creating personal tab
Creating personal tab
You can edit any tab online and save it as your Personal.

You can edit, replace or remove any tab part or add personal notes – all changes will be seen only by you.

Personal tabs can be accessed anytime from any device, even offline.
Learn more »
comments
print report bad tab
1 comment total.
0 reply
CauseAhRiot 102 Apr 29, 2012 01:39 PM

I give it a four only because there's a short run after the chorus not listed. When I get it, if I remember, I'll post it in here. Great tab, otherwise!

guest
You may want to rate the tab now too:
select rating
Wanna post a correction for this tab? Suggest correction