Oops, an error
Loading. Please wait.

Minimum Wage Tab

version 1
version 1

Whole song

16,828 views 3 this week
1 commentread comment
1 2 3 4 5
excellent!
x 6
add to favorites
launch autoscroll
font size
0
reset
how to read this tab
guitar tuner
Autoscroll
slow
fast
+/-
esc
set tempo
stop
Help us to improve Ultimate-Guitar.com Take our survey!
×
Author
Difficulty
intermediate
Artist: The Expendables
Song: Minimum Wage
Album: The Expendables
Tabbed by: M Fliesler

Tuning: Standard


Intro: C G Am F

       C            G               Am                   F
e|---------0------------3----------------0---------1---1--------------------|
B|------1-----------3----------0h1-0h1-0-------1----1-----------------------|
G|---0---0-------0---0--------------------------2----2----------------------|
D|----2---2-------0---0----------------------3------------------------------|
A|-3-------------------------0----------------------------------------------|
E|-------------3------------------------------------------------------------|

Intro part 2:
            C                 G             Am            F
e|--------------------------------3-------------1----------1-----1----------|
B|----------1-------1---------3-----------0h1---------1-----1---------------|
G|---0-----0-------0-------0---0--------2-----2------2-2-----2~-------------|
D|----0h2------0h2----------0---0-------------------3-----------------------|
A|-3----------------------------------0-------------------------------------|
E|-----------------------3--------------------------------------------------|

Verse: x2
e|--------------------------------------------------------------------------|
B|-------------8~-----------------10~----13-12-10—10h12p10-8----------------|
G|---9~----7h9----------9h12-9h12----------------------------10-9-----------|
D|--------------------------------------------------------------------------|
A|--------------------------------------------------------------------------|
E|--------------------------------------------------------------------------|


Rhythm plays: C G Am F (this is the rhythm the entire song, when the distortion comes 
play the same chords as power chords instead of barre)

    C       G       Am        F
e|--3------3--------5--------1-|
B|--5------3--------5--------1-|
G|--5------4--------5--------2-|
D|--5------5--------7--------3-|
A|--3------5--------7--------3-|
E|--x------3--------5--------1-|

I haven't been able to figure out the lead or solo of this song. The lead is pretty 
to intro part 2, but has some fillers and what not. Hopefully this can help other people 
a bit.
Suggest correction
comments
print report bad tab
1 comment total.
0 reply
Razorback360 10 wrote on December 29 2012, 10:27 pm

e|--------------------------------------------------------------------------|
B|-------------3~---------3----3h5~------6--5--3-—--3h5p3-------------------|
G|---5~----4h5----------5----5-------------------------------5-5~-----------|
D|--------------------------------------------------------------------------|
A|--------------------------------------------------------------------------|
E|--------------------------------------------------------------------------|

this is the harmony to the verse part, at about 17 seconds into the song, repeated twice. im fairly sure its correct, i tried it with my loop station. you can add it to your work, its up to you, good job so far!

guest
You may want to rate the tab now too:
select rating
Wanna post a correction for this tab? Suggest correction