Oops, an error
Loading. Please wait.

Sacrifice Bass Tab

version 1
version 1

Whole song

Interactive

10,355 views 12 this week
no commentswrite comment
1 2 3 4 5
worth learning
x 1
add to favorites
launch autoscroll
font size
0
reset
guitar tuner
Tab Pro tools
  • play this tab
  • loop segment
  • change instrument
  • show fretboard
  • metronome
Autoscroll
slow
fast
+/-
esc
set tempo
stop
Contributor
-------------------------------------------------------------------------------
			     Sacrifice-The Expendables
-------------------------------------------------------------------------------

Tabbed By:roflmonstah
e-mail:rollingminority@gmail.com

After listening to the song some more and watching a live video, I think this is the 
way to play it.

Tuning:EADG

Intro:
0:06-0:017
G|------------------------------------------------------|
D|------------------------------------------------------|
A|------------------------------------------------------|
E|--/3-3333333333333333333333333333333333333333333------|

0:19
G|-----------------------|
D|---------3h5p3---------|
A|--6-6---------5----3---|
E|----------------3-5----|

Main Riff
0:22
G|----------------------------------------|
D|----------------------1-1-1------1------|
A|-------1-3-1-3-1--1-3--------1-3---3-1--|
E|-3-3-1----------------------------------|

0:39
G|------------|
D|------------|
A|--3~-6~-3~--|
E|------------|

Main Riff
0:45
G|----------------------------------------|
D|----------------------1-1-1------1------|
A|-------1-3-1-3-1--1-3--------1-3---3-1--|
E|-3-3-1----------------------------------|

G|----------------------------------------|
D|----------------------111111----333333--|
A|-------1-3-1-3-1--1h3--------3h5--------|
E|-3-3-1----------------------------------|

1st Chorus
0:56
G|----------------------------3-3-3--------------|
D|-------5/3--------3-3------------------3-------|
A|------------3h5-5-----3-5-5-------3--5---5-3---|
E|--6-6------------------------------------------|

Main Riff
1:18
G|----------------------------------------|
D|----------------------1-1-1------1------|
A|-------1-3-1-3-1--1-3--------1-3---3-1--|
E|-3-3-1----------------------------------|

@1:47
G|----------------------------------------|
D|----------------------111111----333333--|
A|-------1-3-1-3-1--1h3--------3h5--------|
E|-3-3-1----------------------------------|

2nd Chorus
G|----------------------------3-3-3--------------|
D|-------5/3--------3-3------------------3-------|
A|------------3h5-5-----3-5-5-------3--5---5-3---|
E|--6-6------------------------------------------|

The metal jam part
2:15-3:50
@2:50 there's a fast little riff he does that I haven't figured out yet.
G|--------------------------------------------|
D|----------------------1-1-------------------|
A|-------1-3-1-3-1--1-3-----3-1-3--3-3-3-1-0--|
E|-3-3-1--------------------------------------|
2:36
G|--------------------------|
D|----------------1-1-------|
A|------1h3p1----------3-3--|
E|--3-3-------3-------------|
2:57
G|-----------------------------------|
D|---------------11111111------------|
A|------------------------333333333--|
E|--333333333333---------------------|
3:08
G|--------------------------------------|
D|--------------------------------------|
A|----------------------------55555555--|
E|-555555555555555--111111111-----------|
3:40
G|--------------------------------------------------|
D|--------------------------------------------------|
A|--6-6--3-3---------------------66666666-33333333--|
E|-----------3-3-333333333333333--------------------|
3:50
G|--------------------------------------------|
D|----------------------1-1-------------------|
A|-------1-3-1-3-1--1-3-----3-1-3--3-3-3-1-0--|
E|-3-3-1--------------------------------------|

3rd Chorus
4:11
G|----------------------------3-3-3--------------|
D|-------5/3--------3-3------------------3-------|
A|------------3h5-5-----3-5-5-------3--5---5-3---|
E|--6-6------------------------------------------|

End on
G|------|
D|------|
A|------|
E|--3~--|

Listen to the song for timing and such...
I think this version is better than the first, but as always, email me if you have 
comments, suggestions, improvements. Thanks!Enjoy!
:)

| /  slide up
| \  slide down
| h  hammer-on
| p  pull-off
| ~  vibrato
| +  harmonic
| x  Mute note
===============================================================================
comments
We did not receive enough feedback on this tab! Please rate:
print report bad tab
1 2 3 4 5
I want to post or [tab]
guest
You may want to rate the tab now too:
select rating
Please do not post tabs as comments. Select "correction" instead!