Oops, an error
Loading. Please wait.

Sacrifice Tab

version 1
version 1

Whole song

Interactive

54,987 views 24 this week
3 commentsread comments
1 2 3 4 5
1 last vote to show rating
add to favorites
launch autoscroll
font size
0
reset
how to read this tab
guitar tuner
Autoscroll
slow
fast
+/-
esc
set tempo
stop
Help us to improve Ultimate-Guitar.com Take our survey!
×
Author
Difficulty
intermediate
-----------------------------------------------------------------------
                             SACRIFICE – The Expendables
-----------------------------------------------------------------------

Note: Use in conjunction with the provided solo tab, which is fairly accurate and what I
when playing this song.  This is just what wasn’t available before. This is one of
best, this or “Burnin’ up” off the Open Container album. They also put on a great live 
although their drummer is terribad.

Tuning: standard

Part 1 with echo
e|------------------------13-------------------------15-----|
B|------------11----10-------------------11----10-----------|
G|----12---------------------------12-----------------------|
D|----------------------------------------------------------|
A|----------------------------------------------------------|
E|----------------------------------------------------------|


e|------------------------------13-13-13-------------------------------15-15-15--|
B|----------11-11-11--10-10-10---------------------11-11-11--10-10-10------------|
G|-12-12-12--------------------------------12-12-12------------------------------|
D|-------------------------------------------------------------------------------|
A|-------------------------------------------------------------------------------|
E|-------------------------------------------------------------------------------|


e|-------------------------------13t/15t--|
B|-----------11-11-11--10-10-10-----------|
G|-12-12-12-------------------------------|
D|----------------------------------------|
A|----------------------------------------|
E|----------------------------------------|


Part 2
e|----------------------------------------------------------------|
B|---11 11----11-----11 11----11-----11 11----11----11-11/13-10---|
G|---------12--------------12--------------12---------------------|  x3 then
D|-12-------------12--------------12-------------12---------------|
A|----------------------------------------------------------------|
E|----------------------------------------------------------------|


e|------------------------------------------------10\8-----------------|
B|---11 11----11-----11 11----11------11 11---11-------11\10-8(h10p8)?-|
G|---------12--------------12---------------12-------------------------|
D|-12-------------12--------------12-----------------------------------|
A|---------------------------------------------------------------------|
E|---------------------------------------------------------------------|


Part 3 one guitar lets chord ring, the other does as follows:
e|-3--3--3--x--6-6--x--3-3--33-|
B|-3--3--3--x--8-8--x--4-4--44-|
G|-3--3--3--x--8-8--x--5-5--55-|  x3 then
D|-5--5--5--x--8-8--x--5-5--55-|
A|-----------------------------|
E|-----------------------------|


e|-3--3--3--x--6-6--x--8--8---8-8--|
B|-3--3--3--x--8-8--x--8--8---8-8--|
G|-3--3--3--x--8-8--x--8--8---8-8--|
D|-5--5--5--x--8-8--x--10-10--1010-|
A|---------------------------------|
E|---------------------------------|


Part 4 maybe phaser effect?
e|-6--6--5--5--6--6--3--3-|
B|-6--6--6--6--6--6—-3--3-|
G|-7--7--7--7--7--7—-3--3-| x4
D|-8--8--7--7--8--8--5—-5-|
A|------------------------|
E|------------------------|


Part 5 with distortion
e|-15-------15-------15-------15-------15----|
B|----15-------15-------15-------15----------|
G|-------15-------15-------15-------15-------|
D|-------------------------------------------|
A|-------------------------------------------|
E|-------------------------------------------|


Part 6
e|----------------------------------------------------------|
B|--15-15-13-15--15-15-13-15--15-15-13-15--15-13-11---------|
G|--------------------------------------------------14-12---|
D|----------------------------------------------------------|
A|----------------------------------------------------------|
E|----------------------------------------------------------|

Order:
Part 1
Part 2 and part 3 starts when the drums do
Part 3
Part 4
Part 2 (first half only once, not x3)
Part 3
Part 4 one guitar plays chords above, one picks down through chords
Part 3
See Solo provided, but only the pre-solo and the solo parts, then end solo on E5 and
it around 16 times, letting 16th ring
Part 5
Part 2 with distortion (first half only once, not x3), then second half of part 2 and
6 harmonic
Part 3 let chords ring
Part 4 and end on first chord

| /  slide up
| \  slide down
| h  hammer-on
| p  pull-off
| x  Mute note


END
Suggest correction
Give kudos to tab author, rate the tab!
1 2 3 4 5
comments
print report bad tab
3 comments total.
-2 reply
jtp311 10 Jan 29, 2008 12:59 PM

Part 2 should be:
e|----------------------------------------------------------------|
B|---11 10----11-----11
10----11-----11 10----11----11-11/13-10---|
G|---------12--------------12--------------12---------------------|

D|-12-------------12--------------12-------------12---------------|
A|-----------------------------------------------
-----------------|
E|----------------------------------------------------------------|
just a minor correction
otherwise an awesome tab

-2 reply
jtp311 10 Jan 29, 2008 12:59 PM

Part 2 should be:
e|----------------------------------------------------------------|
B|---11 10----11-----11
10----11-----11 10----11----11-11/13-10---|
G|---------12--------------12--------------12---------------------|

D|-12-------------12--------------12-------------12---------------|
A|-----------------------------------------------
-----------------|
E|----------------------------------------------------------------|
just a minor correction
otherwise an awesome tab

0 reply
carljackson 10 Feb 19, 2008 03:49 PM

You can also use:


e|-------6---6p5h6-----6---6p5h6-----6---6p5h6-----6--6/8-5-----6---6p5h6-----6--6/8-5-10---|
B|----8--------------8-------------8-------------8-------------8-------------8--------------|
G|------------------------------------------------------------------------------------------|
D|------------------------------------------------------------------------------------------|
A|------------------------------------------------------------------------------------------|
E|------------------------------------------------------------------------------------------|


Note the 10th fret on high e on the 6th repeat of this riff. Then after 4 more repeats of the main riff it goes:


e|-------6---6p5h6--10p8-6/5-----|
B|----8---------------------8----|
G|-------------------------------|
D|-------------------------------|
A|-------------------------------|
E|-------------------------------|


I find it a bit easier because of finger placement.

guest
You may want to rate the tab now too:
select rating
Wanna post a correction for this tab? Suggest correction