Oops, an error
Loading. Please wait.

Strive Tab

version 1
version 1

Whole song

3,712 views 1 this week
no commentswrite comment
1 2 3 4 5
please rate
add to favorites
launch autoscroll
font size
0
reset
how to read this tab
guitar tuner
Autoscroll
slow
fast
+/-
esc
set tempo
stop
Help us to improve Ultimate-Guitar.com Take our survey!
×
Author
Difficulty
novice
The Expendables
Song: Strive
Album: No Time to Worry

Tuning: Standard

eI-------------------I
BI-----------10-8-7—-I   x11    
GI-------7-----------I
DI---7/9-------------I
AI-------------------I
EI-------------------I  


eI----------------------------I
BI-----------10-8-7-8-7---7~--I
GI-------7--------------9-----I
DI---7/9----------------------I
AI----------------------------I
EI----------------------------I

e|----------------------------------|
B|----------------------------------|
G|-7--6—6h7p6-----7--7--9-7---------|
D|-----------9---9--9---------------|
A|----------------------------------|
E|----------------------------------|




Verse- These Chords are played pretty much the whole time, listen for the rhythm and what not.

e|-5-----5-----3-----|
B|-7-----5-----3-----|
G|-7-----6-----4-----|
D|-7-----7-----5-----|
A|-5-----7-----5-----|
E|-5-----5-----3-----|
Suggest correction
Give kudos to tab author, rate the tab!
1 2 3 4 5
comments
print report bad tab
guest
You may want to rate the tab now too:
select rating
Wanna post a correction for this tab? Suggest correction