Oops, an error
Loading. Please wait.

Lazy Generation tab

version 1
version 1

Whole song

7,566 views 9 this week
2 commentsread comments
1 2 3 4 5
x 5
add to favorites
×
Save as Personal and add changes to this tab that will be seen only by you. Learn more ›
×
You can save this tab as Personal to edit and correct it or add notes. All changes will be seen only by you. Learn more »
launch autoscroll
font size
0
reset
how to read this tab
guitar tuner
edit
Autoscroll
slow
fast
+/-
esc
set tempo
stop
Band: The F-Ups
Song: Lazy Generation
Tuning: Half Step


   We are the lazy generation no more standing out in
e|--------------------------------------------------------|
b|--------------------------------------------------------|
g|--------------------------------------------------------|
d|-5555555555555555555555555555555555555555555555555555---|
a|-5555555555555555555555555555555555555555555555555555---|
E|-3333333333333333333333333333333333333333333333333333---|

   line
e|--------------------------------------------------------|
b|--------------------------------------------------------|
g|-77777777777777-----------------------------------------|
d|-77777777777777-----------------------------------------|
a|-55555555555555-----------------------------------------|
E|--------------------------------------------------------|

   So good at wasting our time
e|--------------------------------------------------------|
b|--------------------------------------------------------|
g|--------------------------------------------------------|
d|--------------------------------------------------------|
a|--------------------------------------------------------|
E|--------------------------------------------------------|

   We are the lazy generation
e|--------------------------------------------------------|
b|--------------------------------------------------------|
g|--------------------------------------------------------|
d|-33333333333333333333333333-----------------------------|
a|-33333333333333333333333333-----------------------------|
E|-55555555555555555555555555-----------------------------|

   We are the lazy gneation
e|--------------------------------------------------------|
b|--------------------------------------------------------|
g|-777777777777777777777777-------------------------------|
d|-777777777777777777777777-------------------------------|
a|-555555555555555555555555-------------------------------|
E|--------------------------------------------------------|

   We are the lazy genoration
e|--------------------------------------------------------|
b|--------------------------------------------------------|
g|-77777777777777777777777777-----------------------------|
d|-77777777777777777777777777-----------------------------|
a|-55555555555555555555555555-----------------------------|
E|--------------------------------------------------------|

   Now
e|--------------------------------------------------------|
b|--------------------------------------------------------|
g|--------------------------------------------------------|
d|-33333333333333333333333333-----------------------------|
a|-33333333333333333333333333-----------------------------|
E|-55555555555555555555555555-----------------------------|

   We are the lazy generation
e|--------------------------------------------------------|
b|--------------------------------------------------------|
g|--------------------------------------------------------|
d|-33333333333333333333333333-----------------------------|
a|-33333333333333333333333333-----------------------------|
E|-55555555555555555555555555-----------------------------|

 We are the lazy gneation
e|--------------------------------------------------------|
b|--------------------------------------------------------|
g|-777777777777777777777777-------------------------------|
d|-777777777777777777777777-------------------------------|
a|-555555555555555555555555-------------------------------|
E|--------------------------------------------------------|

   We are the lazy generation
e|--------------------------------------------------------|
b|--------------------------------------------------------|
g|-77777777777777777777777777-----------------------------|
d|-77777777777777777777777777-----------------------------|
a|-55555555555555555555555555-----------------------------|
E|--------------------------------------------------------|

   Now
e|--------------------------------------------------------|
b|--------------------------------------------------------|
g|--------------------------------------------------------|
d|-33333333333333333333333333-----------------------------|
a|-33333333333333333333333333-----------------------------|
E|-55555555555555555555555555-----------------------------|

   Stand   Up    And    Shout   We wont   Be there for
e|---------------------------------------------------------|
b|---------------------------------------------------------|
g|-5555----555---555---------------------------------------|
d|-5555----555---555----5555----555555-----222222----------|
a|-3333----222---000----5555----555555-----222222----------|
E|----------------------3333----222222-----000000----------|

   You!  Hey!  Hey! Hey!  Hey!  Hey!  Hey!  Lets go!
e|--------------------------------------------------------|
b|--------------------------------------------------------|
g|-7-----7~xx--7----7~xx--7-----7~xx--7------7-7----------|
d|-7-----7~xx--7----7~xx--7-----7~xx--7------7-7----------|
a|-5-----5~xx--5----5~xx--5-----5~xx--5------5-5----------|
E|--------------------------------------------------------|

   We are the lazy generation they call us social mutations
e|--------------------------------------------------------|
b|--------------------------------------------------------|
g|--------------------------------------------------------|
d|-5555555555555555555555555555555555555555555555555555---|
a|-5555555555555555555555555555555555555555555555555555---|
E|-3333333333333333333333333333333333333333333333333333---|

   Why?          You can just drop dead and
e|--------------------------------------------------------|
b|--------------------------------------------------------|
g|-7777777777777777777777777777777777777777---------------|
d|-7777777777777777777777777777777777777777---------------|
a|-5555555555555555555555555555555555555555---------------|
E|--------------------------------------------------------|

   Die. Nothing we do ever seems to matter just like crap on a silver platter
e|--------------------------------------------------------|
b|--------------------------------------------------------|
g|--------------------------------------------------------|
d|-5555555555555555555555555555555555555555555555555555---|
a|-5555555555555555555555555555555555555555555555555555---|
E|-3333333333333333333333333333333333333333333333333333---|

   Shines        Yeah you know just where we stand
e|--------------------------------------------------------|
b|--------------------------------------------------------|
g|-777777777777777777777777777777777777777777777777-------|
d|-777777777777777777777777777777777777777777777777-------|
a|-555555555555555555555555555555555555555555555555-------|
E|--------------------------------------------------------|

   Stand   Up    And    Shout   We wont   Be there for
e|--------------------------------------------------------|
b|--------------------------------------------------------|
g|-5555----555---555--------------------------------------|
d|-5555----555---555----5555----555555-----222222---------|
a|-3333----222---000----5555----555555-----222222---------|
E|----------------------3333----222222-----000000---------|

   You!  Hey!  Hey! Hey!  Hey!  Hey!  Hey!
e|--------------------------------------------------------|
b|--------------------------------------------------------|
g|-7-----7~xx--7----7~xx--7-----7~xx--7-------------------|
d|-7-----7~xx--7----7~xx--7-----7~xx--7-------------------|
a|-5-----5~xx--5----5~xx--5-----5~xx--5-------------------|
E|--------------------------------------------------------|

   Lets go!
e|--------------------------------------------------------|
b|--------------------------------------------------------|
g|--------------------------------------------------------|
d|--------------------------------------------------------|
a|--------------------------------------------------------|
E|--------------------------------------------------------|

  Stand   Up    And    Shout   We wont   Be there for
e|--------------------------------------------------------|
b|--------------------------------------------------------|
g|-5555----555---555--------------------------------------|
d|-5555----555---555----5555----555555-----222222---------|
a|-3333----222---000----5555----555555-----222222---------|
E|----------------------3333----222222-----000000---------|

   You!  Hey!  Hey! Hey!  Hey!  Hey!  Hey!  Lets go!
e|--------------------------------------------------------|
b|--------------------------------------------------------|
g|-7-----7~xx--7----7~xx--7-----7~xx--7------7-7----------|
d|-7-----7~xx--7----7~xx--7-----7~xx--7------7-7----------|
a|-5-----5~xx--5----5~xx--5-----5~xx--5------5-5----------|
E|--------------------------------------------------------|

   We are the lazy generation
e|--------------------------------------------------------|
b|--------------------------------------------------------|
g|--------------------------------------------------------|
d|-33333333333333333333333333-----------------------------|
a|-33333333333333333333333333-----------------------------|
E|-55555555555555555555555555-----------------------------|

   We are the lazy gneation
e|--------------------------------------------------------|
b|--------------------------------------------------------|
g|-777777777777777777777777-------------------------------|
d|-777777777777777777777777-------------------------------|
a|-555555555555555555555555-------------------------------|
E|--------------------------------------------------------|

   We are the lazy genoration
e|--------------------------------------------------------|
b|--------------------------------------------------------|
g|-77777777777777777777777777-----------------------------|
d|-77777777777777777777777777-----------------------------|
a|-55555555555555555555555555-----------------------------|
E|--------------------------------------------------------|

   Now
e|--------------------------------------------------------|
b|--------------------------------------------------------|
g|--------------------------------------------------------|
d|-33333333333333333333333333-----------------------------|
a|-33333333333333333333333333-----------------------------|
E|-55555555555555555555555555-----------------------------|

   We are the lazy generation
e|--------------------------------------------------------|
b|--------------------------------------------------------|
g|--------------------------------------------------------|
d|-33333333333333333333333333-----------------------------|
a|-33333333333333333333333333-----------------------------|
E|-55555555555555555555555555-----------------------------|

   We are the lazy gneation
e|--------------------------------------------------------|
b|--------------------------------------------------------|
g|-777777777777777777777777-------------------------------|
d|-777777777777777777777777-------------------------------|
a|-555555555555555555555555-------------------------------|
E|--------------------------------------------------------|

   We are the lazy genoration
e|--------------------------------------------------------|
b|--------------------------------------------------------|
g|-77777777777777777777777777-----------------------------|
d|-77777777777777777777777777-----------------------------|
a|-55555555555555555555555555-----------------------------|
E|--------------------------------------------------------|

   Now
e|--------------------------------------------------------|
b|--------------------------------------------------------|
g|--------------------------------------------------------|
d|-33333333333333333333333333-----------------------------|
a|-33333333333333333333333333-----------------------------|
E|-55555555555555555555555555-----------------------------|

*Solo*
e|------------------------------------------------------------|
b|------------------------------------------------------------|
g|---12-12-12-14-14-12-11-12----------------------------------|
d|---12-12-12-14-14-12-11-12----------------------------------|
a|---10-10-10-12-12-10-9--10----------------------------------|
E|------------------------------------------------------------|

e|--------------------------------------------------------|
b|--------------------------------------------------------|
g|---14-14-14-16-16-14-12-14------------------------------|
d|---14-14-14-16-16-14-12-14------------------------------|
a|---12-12-12-14-14-12-10-12------------------------------|
E|--------------------------------------------------------|

e|--------------------------------------------------------|
b|--------------------------------------------------------|
g|---14-14-14-16-16-14-12-14-12---------------------------|
d|---14-14-14-16-16-14-12-14-12---------------------------|
a|---12-12-12-14-14-12-10-12-10---------------------------|
E|--------------------------------------------------------|

   Stand   Up    And    Shout   We wont   Be there for
e|--------------------------------------------------------|
b|--------------------------------------------------------|
g|-5555----555---555--------------------------------------|
d|-5555----555---555----5555----555555-----222222---------|
a|-3333----222---000----5555----555555-----222222---------|
E|----------------------3333----222222-----000000---------|

   You!  Hey!  Hey! Hey!  Hey!  Hey!  Hey!
e|--------------------------------------------------------|
b|--------------------------------------------------------|
g|-7-----7~xx--7----7~xx--7-----7~xx--7-------------------|
d|-7-----7~xx--7----7~xx--7-----7~xx--7-------------------|
a|-5-----5~xx--5----5~xx--5-----5~xx--5-------------------|
E|--------------------------------------------------------|

   Lets go!
e|--------------------------------------------------------|
b|--------------------------------------------------------|
g|--------------------------------------------------------|
d|--------------------------------------------------------|
a|--------------------------------------------------------|
E|--------------------------------------------------------|

  Stand   Up    And    Shout   We wont   Be there for
e|--------------------------------------------------------|
b|--------------------------------------------------------|
g|-5555----555---555--------------------------------------|
d|-5555----555---555----5555----555555-----222222---------|
a|-3333----222---000----5555----555555-----222222---------|
E|----------------------3333----222222-----000000---------|

   You!  Hey!  Hey! Hey!  Hey!  Hey!  Hey!  Lets go!
e|--------------------------------------------------------|
b|--------------------------------------------------------|
g|-7-----7~xx--7----7~xx--7-----7~xx--7------7-7----------|
d|-7-----7~xx--7----7~xx--7-----7~xx--7------7-7----------|
a|-5-----5~xx--5----5~xx--5-----5~xx--5------5-5----------|
E|--------------------------------------------------------|

   We are the lazy generation
e|--------------------------------------------------------|
b|--------------------------------------------------------|
g|--------------------------------------------------------|
d|-33333333333333333333333333-----------------------------|
a|-33333333333333333333333333-----------------------------|
E|-55555555555555555555555555-----------------------------|

   We are the lazy generation
e|--------------------------------------------------------|
b|--------------------------------------------------------|
g|--------------------------------------------------------|
d|-33333333333333333333333333-----------------------------|
a|-33333333333333333333333333-----------------------------|
E|-55555555555555555555555555-----------------------------|

   We are the lazy generation
e|--------------------------------------------------------|
b|--------------------------------------------------------|
g|--------------------------------------------------------|
d|-33333333333333333333333333-----------------------------|
a|-33333333333333333333333333-----------------------------|
E|-55555555555555555555555555-----------------------------|

   We are the lazy generation
e|--------------------------------------------------------|
b|--------------------------------------------------------|
g|--------------------------------------------------------|
d|-33333333333333333333333333-----------------------------|
a|-33333333333333333333333333-----------------------------|
E|-55555555555555555555555555-----------------------------|

   Now!
e|--------------------------------------------------------|
b|--------------------------------------------------------|
g|--------------------------------------------------------|
d|-5~~~~~~~-----------------------------------------------|
a|-5~~~~~~~-----------------------------------------------|
E|-3~~~~~~~-----------------------------------------------|

   Now!
e|--------------------------------------------------------|
b|--------------------------------------------------------|
g|--7-----------------------------------------------------|
d|--7-----------------------------------------------------|
a|--5-----------------------------------------------------|
E|--------------------------------------------------------|

            
            
Suggest correction
Creating personal tab
Creating personal tab
You can edit any tab online and save it as your Personal.

You can edit, replace or remove any tab part or add personal notes – all changes will be seen only by you.

Personal tabs can be accessed anytime from any device, even offline.
Learn more »
comments
print report bad tab
2 comments total.
0 reply
mikkel1393 10 Nov 21, 2007 06:17 AM

sure you mean half step down ofc ;)
BUt maybe you should make a version in normal tuning so newbies could learn it to.

0 reply
rockstarbowker 283 Nov 21, 2007 02:17 PM

ok ill see what I can do

guest
You may want to rate the tab now too:
select rating
Wanna post a correction for this tab? Suggest correction