Oops, an error
Loading. Please wait.

Legions Of The Serpent Bass Tab

version 1
version 1

Whole song

Interactive

3,552 views 1 this week
1 commentread comment
1 2 3 4 5
please rate
add to favorites
launch autoscroll
font size
0
reset
guitar tuner
Autoscroll
slow
fast
+/-
esc
set tempo
stop
Help us to improve Ultimate-Guitar.com Take our survey!
×
Difficulty
Tuning
advanced
C G C F A D
Artist: The Faceless
Song: Legions of the Serpant
Album: Planetary Duality
Tuning- CGCF
Tabbed out by: Derek Anderson

Keep in mind this is my own rendition of the bass line. This is probably in no way,
shape or form the way its played on the album. I added my own "style",if you will,
to the song. Its fun, its correct, i just added higher/lower octaves in to make it
more fun. The Faceless'bassist uses a 5 string. I own a 4 string so I figured out
the song accordingly. I understand some parts of this tab might be hard to understand
in terms of timing. sorry, its a tab, shit happens.


---------------------------------------------------------------6----|
------------------------8--------5---------------4-5-7-8-7-5-4-4----|
----------------------6---9----3---6--------5-6-8-------------------|
-----557788--335566-------------------7-8-10------------------------|

--------------------------------------------------0-2-3-2-0----6----|
-------77------44-------8--------4-0-------0-1-3-4-----------4-4----|
----------------------6---9----2------0-1-3-------------------------|
-----55--88--22--55-------------------------------------------------|

---------------------------------------------------------------6----|
------------------------8--------5---------------4-5-7-8-7-5-4-4----|
----------------------6---9----3---6--------5-6-8-------------------|
-----557788--335566-------------------7-8-10------------------------|

--------------------------------------------------0-2-3-2-0----6----|
-------77------44-------8--------4-0-------0-1-3-4-----------4-4----|
----------------------6---9----2------0-1-3-------------------------|
-----55--88--22--55-------------------------------------------------|

-----2------------------------------7-------------------|
-----4----------4-4-4-----------0-5---8-----------------|
------------------------------------------3---1---0-----|
-------44444444-------5-5-5-7-8-------------------------|

-----2----------------------------------5-7-8--------------|
-----4----------4-4-4-----------0-5-7-8--------------------|
-----------------------------------------------3---1---0---|
-------44444444-------5-5-5-7-8----------------------------|

-----2--------------------|
-----4----------4-4-4-----|
--------------------------|
-------44444444-----------|

-------------------------------------------------|
---------------4444------4444--------------------|
----------1111------1111------1111------1111-----|
-----1111--------------------------1111----------|

-------------------------------------------------|
---------------8888------8888--------------------|
----------5555------5555------5555------5555-----|
-----5555--------------------------5555----------|

----------------2--------------------|
----------------4----------4-4-------|
-----3--1---0------------------------|
------------------44444444-----------|

-----------------------------------------------------------|
-----------------------------------------------------------|
-----------------------------------------------------------|
-----5-5-5-5-5-5-4-4-4-4-4-4-5-5-5-5-5-5-6-6-6-6-6-6-------|2x

-----------------------------------------------------------|
-----------------------------------------------------------|
-----------------------------------------------------------|
-----6-6-6-6-6-6-2-2-2-2-2-2-6-6-6-6-6-6-9-9-9-9-9-9-------|

---------------------------------------------------------------------|
---------------------------------------------------------------------|
-----11-11-11-11-11-11-7-7-7-7-7-7-14-14-14-14-14-14-7-7-7-7-7-7-----|
---------------------------------------------------------------------|


-------------------7-------------------2-------------------|
---------------0-5---8-----------------4----------4-4-4----|
-------------------------3---1---0-------------------------|
-----5-5-5-7-8---------------------------44444444----------|

-----------------------5-7-8----------------2-------------------|
---------------0-5-7-8----------------------4----------4-4-4----|
-------------------------------3---1---0------------------------|
-----5-5-5-7-8--------------------------------44444444----------|


-----12----------13---------12----------11----|
----------------------------------------------|
-------13-10-------11---------13-10-------9---|
----------------------------------------------|

-----------------------------------|
-----------------------------------|
-----222255221111-3-2-1-0-1-2------|
-----------------------------------|

-----12----------11---------12----------13---------12---------11------|
----------------------------------------------------------------------|
-------13-10-------9----------13-10-------11---------13-10------9-----|
----------------------------------------------------------------------|

-----------------------------------|
-----------------------------------|
-----222255221111-3-2-1-0-1-2------|
-----------------------------------|

------------------------------------------------------------------|
----------------------------9-9-9-6---------------------9-9-9-----|
-----11------7-7-7-11---------------------7-7-7-11----------------|
-------666666--------666666---------666666--------666666----------|

-----------------------------------|
-----------------------------------|
-----------------------------------|
-----5-------1-------5-------9-----|5x

------------------------------------------|
------------------------------------------|
------------------------------------------|
-----5-------1-------0-00000000-0-1-4-----|

-------------------------------------------------------------------------------------|
-------------------------------------------------------------------------------------|
-------------------------------------------------------------------------------------|
-----5-555-555--1-111-111-5-555-555-9-999-999-5-555-555-1-111-111-0-000-000-0-1-4----|4x


From here out just use what you've already learned to finish the rest of the song..
Suggest correction
What's this?
You can suggest a correction to this tab. Community and Mods will review your correction and vote to approve or reject it.
comments
We did not receive enough feedback on this tab! Please rate:
print report bad tab
1 2 3 4 5
1 comment total.
0 reply
bassplayer0895 73 wrote on June 30 2011, 12:56 pm

wow i cant believe no ones looked up this tab. i mean this is a badass song from the faceless.

guest
You may want to rate the tab now too:
select rating
Please do not post tabs as comments. Select "correction" instead!