Oops, an error
Loading. Please wait.

Planetary Duality Hideous Revelation Bass Tab

version 1
version 1

Whole song

Interactive

1,836 views 1 this week
no commentswrite comment
1 2 3 4 5
3 more votes to show rating
add to favorites
launch autoscroll
font size
0
reset
guitar tuner
Autoscroll
slow
fast
+/-
esc
set tempo
stop
Help us to improve Ultimate-Guitar.com Take our survey!
×
Author
-------------------------------------------------------------------------------
	 Planetary Duality Hideous Revelation - The Faceless
-------------------------------------------------------------------------------

Tabbed By : og.lil.j
e-mail: og.lil.j@gmail.com

Tuning: C G C F

F|---------------------------------------------------------------------------|
C|----------------------------------0--------------------------0-------------|
G|---5-------5-----------5--6-5----------------5--6-5------------------------|
C|--------0--------4--------------1-----1------------------4-----1------0----|

F|---------------------------------------------------------------------------|
C|----------------------------------0----------------------------------------|
G|--5--------5-----------5--6-5------------------------5-------5-------------|
C|--------0--------4--------------1------1-------0-----------0------4--------|

F|---------------------------------------------------------------------------|
C|--------------0---------------------------0--------------------------------|
G|--5--6-5-------------------5--6-5----------------------------5---------5---|
C|-----------1-------1------------------4--------1------0-------------0------|

F|---------------------------------------------------------------------------|
C|------------------------0---------------------------------------0----------|
G|-------5--6-5----------------------------5555--5555----556655----------5566|
C|-4------------------4--------1-------0000----00----4444------111-111111----|

F|---------------------------------------------------------------------------|
C|-------0-------------------------------0-----------------0-----------------|
G|5555------------5555--5555----556655----------55665555------------5555--555|
C|----444-11110000----00----4444------111-111111--------444-11110000----00---|

F|---------------------------------------------------------------------------|
C|--------------0----------------0-------------------------------0-----------|
G|5----556655----------55665555-----------5555--5555----556655---------------|
C|-4444------111-111111--------444-1110000----00----4444------111-111111-----|

F|---------------------------------------------------------------------------|
C|-----------0----------------------------------------------0----------------|
G|55665555-----------------5--------5---------5--6-5------------------5--6-5-|
C|--------444-1111----0----------0------4----------------1-------1-----------|

F|---------------------------------------------------------------------------|
C|------0--------------------------------------------0-------------------0---|
G|-----------------------5-------5-------5--6-5----------------5--6-5--------|
C|--4-------1-------0---------0-----4-------------1-------1------------4----1|

F|---------------------------------------------------------------------------|
C|-------------------------------------0-----------------------0-------------|
G|-----5-------5------------5--6-5----------------5--6-5---------------------|
C|0---------0--------4---------------1-------1--------------4------1---------|

F|---------------------------------------------------------------------------|
C|--------------------------------------0-----------------------0------------|
G|------5-------5----------5--6-5-----------------5--6-5---------------------|
C|-0---------0------4----------------1-------1---------------4------1--------|

Suggest correction
Give kudos to tab author, rate the tab!
1 2 3 4 5
comments
print report bad tab
guest
You may want to rate the tab now too:
select rating
Wanna post a correction for this tab? Suggest correction