Oops, an error
Loading. Please wait.

Planetary Duality Ii A Prophecys Fruition Guitar Pro

7,202 views 6 this week
2 commentsread comments
1 2 3 4 5
excellent!
x 4
add to favorites
guitar tuner
Autoscroll
slow
fast
+/-
esc
set tempo
stop
Filesize
Instruments
96 Kb
rhythm guitar #1, rhythm guitar #2, lead guitar, percussion, vocal
"Planetary Duality Ii A Prophecys Fruition"
demo version
Play now

or get full version for Free

Get full version now!
To learn and play this song
in Tab Pro, start free trial
Start free trial

or get $10 off Welcome Bonus

Get welcome bonus
Get access to Tab Pro version of “Planetary Duality Ii A Prophecys Fruition”!
Tab Pro is a premium guitar tab service, available on PC, Mac, iOS and Android
START FREE TRIAL
Your download will start in 7 seconds
×
Like this song? We have more like this. Follow us on Facebook for more great tabs and guitar-related content
To download “Planetary Duality Ii A Prophecys Fruition” Guitar Pro tab click button below
Please note that you must have Guitar Pro software installed on your
computer in order to view this file.
comments
report bad tab
2 comments total.
+3 reply
Zao_89 wrote on May 6 2009, 10:26 pm

S S S S S S S S S S S S S S S S S S S S S S S S S S S S
|-----------------------------------------------------------|
|-----------------------------------------------------------|
|*----------------------------------------------------------|
|*--8-4-----4-------8-4-----4---8-4-----4-------8-4-----4---|
|-------6-----6---------6-----6-----6-----6---------6-----6-|
|---------8-----8-4-------8-----------8-----8-4-------8-----|

S S S S S S S S S S S S S S S S S S S S S S S S S S S S
----------------------------------------------------------|
----------------------------------------------------------|
----------------------------------------------------------|
--7-3-----3-------7-3-----3---7-3-----3-------7-3-----3---|
------5-----5---------5-----5-----5-----5---------5-----5-|
--------7-----7-3-------7-----------7-----7-3-------7-----|

S S S S S S S S S S S S S S S S S S S S S S S S S S S S
----------------------------------------------------------|
----------------------------------------------------------|
----------------------------------------------------------|
--8-4-----4-------8-4-----4---8-4-----4-------8-4-----4---|
------6-----6---------6-----6-----6-----6---------6-----6-|
--------8-----8-4-------8-----------8-----8-4-------8-----|

S S S S S S S S S S S S S S S S S S S S S S S S S S S S
-----------------------------------------------------------------------------||
-----------------------------------------------------------------------------||
----------------------------------------------------------------------------*||
--12-8-------8---------12-8-------8----12-8-------8---------12-8-------8----*||
-------10------10-----------10------10------10------10-----------10------10--||
----------12------12-8---------12--------------12------12-8---------12-------||

Not sure if this shows up properly, but this is a MUCH easier way to play part G.

0 reply
Elvenskwig wrote on January 26 2012, 09:14 pm

At measure 88, it should be some sweeping and taps.
http://www.youtube.com/watch?v=v_9XTC88OJM

I want to post or [tab]
guest
You may want to rate the tab now too:
select rating
Please do not post tabs as comments. Select "correction" instead!