Oops, an error
Loading. Please wait.

Shape Shifters Tab

version 1
version 1

Whole song

Interactive

4,369 views 3 this week
no commentswrite comment
1 2 3 4 5
excellent!
x 4
add to favorites
launch autoscroll
font size
0
reset
how to read this tab
guitar tuner
Autoscroll
slow
fast
+/-
esc
set tempo
stop
Help us to improve Ultimate-Guitar.com Take our survey!
×
Author
Difficulty
Tuning
intermediate
C G C F A D
                           Shape Shifters                             


                                                          The Faceless
Guitar



      light palm-mute throughout                                      
      ^                                   >                           
      S                          S  S  S  S  S  S  S S S S S S S S S  
D||------------------------------------------------------------------|
A||--------------------------------------11------------------5-------|
F||--------------------------------10-------10-----------5-----5-----|
C||--11-------------------------10----11-------11------8---8-----8---|
G||---8-------------------------------------------13-7-------------7-|
C||---x--------------------------------------------------------------|


  S S S S S S S S S S S S S S S S  
----------------------------------|
----------7---------------6-------|
------5-----5---------5-----5-----|
----8---8-----8-----6---6-----6---|
--6-------------6-4-------------4-|
----------------------------------|


  S S S S S S S S S S S S S S  S S  
---------------------------------9-|
--------------------9-----7-9-10---|
------------6---8-6-----6----------|
------4-6-7---7-------7------------|
----4------------------------------|
--4--------------------------------|


                                           
                                                        |---3--|   
   S                       S S S  S S  S S S T  T  S  S E  E   E   
---8-----------------------------------------7-------------8--11--|
--10-------------------------------------9-----(9)---10-9---------|
------------------------------------9------9-------9--------------|
-----------------------------7-9-10---10--------------------------|
---------------------------7--------------------------------------|
---7--------------------------------------------------------------|


                                   ^       
           |---3---|   |---3---|           
   E   E   E   E   E   E   E   E   E  E    
--15------15----------------------15--L\--|
--17----------16------------------16--L\--|
--16--------------16--------------16--L\--|
----------------------17----------17--L\--|
--------------------------15------15--L\--|
------15----------------------15--15--L\--|


  G#m7M9                                        
  S      S  S S  S  S  S  S S  S  S  S S S  E   
----------------------------8------------------|
----------------------10------10-----------10--|
----------------10-------10------10--------10--|
-----------11------11---------------11-----11--|
---------8----8--------------------------8--8--|
--8------------------------------------8-------|


  Gm7M9                              F#m7M  
  S     S  S S S  S S S S S S  S S S E      
------------------------7------------------|
--------------------9-----9----------8-----|
---------------9------9-----9--------8-----|
----------10-----10-----------10-----9-----|
--------7----7---------------------6-6-----|
--7------------------------------6---------|


  S S  S S  S  S  S  S S  S  S  S S S  E   
-----------------------8------------------|
-----------------10------10-----------10--|
-----------10-------10------10--------10--|
------11------11---------------11-----11--|
----8----8--------------------------8-----|
--8-------------------------------8-------|


                             Dm7M  Fm7M 
  S S  S S S  S S S S S S  S E     E    
--------------------7------------------|
----------------9-----9------8----11---|
-----------9------9-----9----8----11---|
------10-----10-----------10-9----12---|
----7----7-------------------6-----9---|
--7------------------------------------|


  S S  S S  S  S  S  S S  S  S  S S S  E   
-----------------------8------------------|
-----------------10------10-----------10--|
-----------10-------10------10--------10--|
------11------11---------------11-----11--|
----8----8--------------------------8--8--|
--8-------------------------------8-------|


  S S  S S S  S S S S S S  S S S E   
--------------------7---------------|
----------------9-----9----------8--|
-----------9------9-----9--------8--|
------10-----10-----------10-----9--|
----7----7---------------------6-6--|
--7--------------------------6------|


  S S  S S  S  S  S  S S  S  S  S S S  E   
-----------------------8------------------|
-----------------10------10-----------10--|
-----------10-------10------10--------10--|
------11------11---------------11-----11--|
----8----8--------------------------8--8--|
--8-------------------------------8-------|


  S S  S S S  S S S S S S  S E   E     E  E   E    
--------------------7---------------|------------||
----------------9-----9------8--11--|-----8--11--||
-----------9------9-----9----8--11--|-----8--11--||
------10-----10-----------10-9--12--|-----9--12--||
----7----7-------------------6---9--|-----6---9--||
--7---------------------------------|------------||




Duration Legend
---------------
W - whole
H - half
Q - quarter
E - 8th
S - 16th
T - 32nd
X - 64th
. - note dotted
|-n-|  - n-tuplets


Tablature Legend
----------------
L - tied note
x - dead note
g - grace note
(n) - ghost note
> - accented note
NH - natural harmonic
AH - artificial harmonic
TH - tapped harmonic
SH - semi harmonic
PH - pitch harmonic
h - hammer on
p - pull off
b - bend
br - bendRelease
pb - preBend
pbr - preBendRelease
brb - bendReleaseBend
\n/ - tremolo bar dip
\n - tremolo bar dive
-/n - tremolo bar Release up
/n\ - tremolo bar inverted dip
/n - tremolo bar return
-\n - tremolo bar Release down
S - shift slide
s - legato slide
/ -  slide into from below or out of upwards
\ -  slide into from above or out of downwards
~ - vibrato
W - wide vibrato
tr - trill
TP - tremolo picking
T - tapping
S - slap
P - pop
< - fade in
^ - brush up
v - brush down
Suggest correction
comments
print report bad tab
guest
You may want to rate the tab now too:
select rating
Please do not post tabs as comments. Select "correction" instead!