Oops, an error
Loading. Please wait.

The Eidolon Reality guitar pro

version 4
version 4

Whole song

Interactive

1,810 views 9 this week
2 commentsread comments
1 2 3 4 5
x 11
add to favorites
guitar tuner
Autoscroll
slow
fast
+/-
esc
set tempo
stop
"The Eidolon Reality"
demo version
Play now

or get full version for Free

×
Get full version now!
Learn and play this song
in Tab Pro
Try for free

or get $10 off Welcome Bonus

Get welcome bonus
Get access to Tab Pro version of “The Eidolon Reality”!
Tab Pro is a premium guitar tab service, available on PC, Mac, iOS and Android
TRY FOR FREE
Your download will start in 7 seconds
×
Like this song? We have more! Follow us on Facebook for daily tips, lessons and other guitar-related content.
To download “The Eidolon Reality” Guitar Pro tab click button below
Please note that you must have Guitar Pro software installed on your
computer in order to view this file.
Suggest correction
comments
report bad tab
2 comments total.
+1 reply
J.Millzzzz 2,488 Jul 29, 2013 04:05 PM

i don't why this got only 3 stars... its not perfect but its the best tab up

0 reply
Hidrio 298 Nov 20, 2013 08:48 AM

Yeah, this is really good actually. The only obvious mistake I noticed was both guitars in the chorus (bar 47/48 etc.) need to stay barring the 10th fret and not move down to the 9th like the bass does.

|---------------------|----------------------|
|---------------------|----------------------|
|-12---12-------12-12-|-12-12-------12-12----|
|-13---13-------13-13-|-13-13-------13-13----|
|-10---10-10-10-10-10-|-10-10-10-10-10-10-10-|
|-10---10-10-10-10-10-|-10-10-10-10-10-10-10-|

instead of
|--------------------|-------------------------|
|--------------------|-------------------------|
|-12---12------12-12-|-12-12-------12-12-------|
|-13---13------13-13-|-13-13-------13-13-------|
|-10---10-10-10-9--9-|--9--9--9--9--9--9--9--9-|
|-10---10-10-10-9--9-|--9--9--9--9--9--9--9--9-|

guest
You may want to rate the tab now too:
select rating