Oops, an error
Loading. Please wait.

Jump tab

413 views 3 this week
4 commentsread comments
1 2 3 4 5
x 4
add to favorites
×
Save as Personal and add changes to this tab that will be seen only by you. Learn more ›
×
You can save this tab as Personal to edit and correct it or add notes. All changes will be seen only by you. Learn more »
launch autoscroll
font size
0
reset
how to read this tab
guitar tuner
edit
Autoscroll
slow
fast
+/-
esc
set tempo
stop
Song:Jump
Artist:The Faders
Date Tabbed:June,2006
Guitar Tabber:Ryan Manongdo/16/m/Montalban Rizal,Philippines
              no_falter0xyahoo.com(Friendster&YM)
              09229015724(Sun Cell)

Gtr.Legends:
. - PALM MUTING
/ - SLIDE
~ - LET IT RING

Gtr.Tuning:Standard(Normal)

Intro :
e|-------------------------|
B|-------------------------|
G|-------------------------|
D|--99-9-999-9999--99999---|
A|--99-9-999-9999--99999---|
E|--77-7-777-7777--77777---|
    .. . ... ....

Verse 1:
I don't wanna live heart ache....
Gtr.1:               Gtr.2:
e|----------------   -----2~---|
B|----------------   -2h4------|
G|----------------   ----------|
D|-99999--666666--   ----------|
A|-99999--666666--   ----------|
E|-77777--444444--   ----------|

When will it end,when will it end...
e|-------------------------|
B|-------------------------|
G|-------------------------|
D|-99999--666666--222222---|
A|-99999--666666--222222---|
E|-77777--444444--000000---|


Chorus:
Jump,why don't you  just jump...
e|---------------------      ------------|
B|---------------------      ------------|
G|--------------------- 4x   ------------| 
D|-99999--88888--66666- Then -99999999---|
A|-99999--88888--66666-      -99999999---|
E|-77777--66666--44444-      -77777777---|

Verse 2:Play Verse 1
Sick and tired of you hanging around...

Repeat Chorus:

Bridge prt.1:
Oooohhh,we didn't think it possible... 
e|-----------------|
B|-----------------|
G|-----------------| 2x
D|-9~--8~--6~-6~---|
A|-9~--8~--6~-6~---|
E|-7~--6~--4~-4~---|

Bridge prt.2:Gtr.Solo
Gtr.1
e|-------------------|
B|-------------------|
G|-------------------| 2x
D|-9999-8888-66666---|
A|-9999-8888-66666---|
E|-7777-6666-44444---|

Gtr.2:
e|-------------------------|
B|---7---7---7-5-4-7-5-4---|
G|-4---3-------------------| 2x
D|-------------------------|
A|-------------------------|
E|-------------------------|

Bridge prt.3:
You say you need me...
e|-------------------|
B|-------------------|
G|-------------------| 4x
D|-9999-8888-66666---| Then
A|-9999-8888-66666---|
E|-7777-6666-44444---|

e|-------------------|
B|-------------------|
G|-9\4-9\4-9\4-9\4---| 
D|-------------------|
A|-------------------|
E|-------------------|

Outro Chorus:Repeat 2x
Soo jump,why don't you just jump...
Gtr.1:Play the Chorus
Gtr.2:
e|----------------------------------------------------|
B|-----777777-----777777-777-555-444-7777-5555-4444---|
G|-444--------333-------------------------------------| 
D|----------------------------------------------------|
A|----------------------------------------------------|
E|----------------------------------------------------|

Now your out on your own...
e|--------------------------|
B|--------------------------|
G|--------------------------| 
D|-9-9-9-9--8-8-8-8-66666---|
A|-9-9-9-9--8-8-8-8-66666---|
E|-7-7-7-7--6-6-6-6-44444---|
   . . . .  . . . .

e|---------------------------------------------|
B|------------------777-555-444--777-555-444---|
G|-4-4-4-4--3-3-3-3----------------------------| 
D|---------------------------------------------|
A|---------------------------------------------|
E|---------------------------------------------|
   . . . .  . . . .

Last Chord:
e|-----|
B|-----|
G|-----| 2x
D|-9---|
A|-9---|
E|-7---|
   .

End...

Jump Lyrics

Verse 1:
I don’t wanna live in heartache
Don’t bring me down again
Stop doing my head in                                    
When will it end when will it end

Get ready its show time
Got nothing to lose but you
Now I’ve made up my mind
You know what to do you know what to do

Chorus 1:
Jump
Why don’t you just jump?
Now you’re out on your own
Only one way for you to go
So jump
Why don’t you just jump?
Now you’re out of time
And you know what you can do

Verse 2:
Sick and tired of you hanging around
Why don’t you get it thru your head
When I say it’s over
It’s over and dead it’s over and dead
(GUNSHOT)
You’re saying I am lookin soooo good
Yah I am doing fine with out you
Ain't missing nothing
Especially you, yeah you

Repeat Chorus 1:

Bridge prt.1:
Oooooh we didn’t think it possible
I could never live without your love
But you lost it all...
Ha

Bridge prt.2:
You say you need me
(Whatever whatever I’ve heard it all before)
Can’t live without me
(Whatever whatever I’ve heard it all before)
And you say you love me
(Whatever whatever I’ve heard it all before)
Do anything for me
(Whatever whatever I’ve heard it all before)


Outro Chorus:
Soooo jump
Why don’t you just jump?
Now you’re out on your own
Only one way for you to go
So jump (jump, jump , jump...)
Why don’t you just jump?
Now you’re out of time
And you know what you can do
Why you can jump!


            
            
Suggest correction
Creating personal tab
Creating personal tab
You can edit any tab online and save it as your Personal.

You can edit, replace or remove any tab part or add personal notes – all changes will be seen only by you.

Personal tabs can be accessed anytime from any device, even offline.
Learn more »
comments
print report bad tab
4 comments total. Showing first comments.
0 reply
shankz 10 Jun 27, 2006 06:12 PM

i don't get it

0 reply
guiltkill 558 Jun 28, 2006 04:41 AM

watthaaa

0 reply
No_Falter08 2,414 Jun 29, 2006 03:35 AM

y u didn't get it??this song is so very very easy..i think u need to tune ur gtr and ur self^_*

guest
You may want to rate the tab now too:
select rating
Wanna post a correction for this tab? Suggest correction