Oops, an error
Loading. Please wait.

No Sleep Tonight Tab

version 2
version 2

Whole song

2,296 views 1 this week
4 commentsread comments
1 2 3 4 5
x 3
add to favorites
launch autoscroll
font size
0
reset
how to read this tab
guitar tuner
×
Best way to learn
"No Sleep Tonight"
Autoscroll
slow
fast
+/-
esc
set tempo
stop
The faders - no sleep tonight
Standard tuning
Tabber - Leon Jenkins

This is soooo easy to play, if u cant play this then u r crap, lol!
Personally I don't like this song but I thought Id give it a go!


Main line, played throughout verses and intros and stuff!

e|------------------------------|
B|------------------------------|
G|------------------------------|
D|------------------------------|
A|------------------------------|
E|--5-5-5-3-5-5-5-0-3-5---------|

Bridge

e|------------------------------|
B|------------------------------|
G|-----------14-----------------|
D|--7--------14--14-------------|
A|--7--------12--14-------------|
E|--5------------12-------------|

Solo thingy

e|------------------------------|
B|------------------------------|
G|--15b21-17-19-17-19-----------|
D|------------------------------| x3
A|------------------------------|
E|------------------------------|


e|------------------------------|
B|------------------------------|
G|--15b21-17-19-17-14-----------|
D|------------------------------|
A|------------------------------|
E|------------------------------|

Email me at ljenkins040@aol.com to let me know wat u think!
Suggest correction
Give kudos to tab author, rate the tab!
1 2 3 4 5
comments
print report bad tab
4 comments total. Showing first comments.
0 reply
Bizzypunk 93 Oct 30, 2005 02:33 AM

like i think the start is ok but something is up with that solo

0 reply
Leon Jenkins 191 Dec 21, 2005 01:29 PM

Sorry i made a typing mistake, this is how it is played. sorry.

Solo thingy

e|------------------------------|
B|------------------------------|
G|--19b21-17-19-17-19-----------|
D|------------------------------| x3
A|------------------------------|
E|------------------------------|


e|------------------------------|
B|------------------------------|
G|--19b21-17-19-17-14-----------|
D|------------------------------|
A|------------------------------|
E|------------------------------|

0 reply
XtractionProces 30 Aug 14, 2009 11:02 AM

This is wrong. You suck. Hard.

guest
You may want to rate the tab now too:
select rating
Wanna post a correction for this tab? Suggest correction