Oops, an error
Loading. Please wait.

Birth Tab

version 1
version 1

Whole song

Interactive

4,329 views 3 this week
3 commentsread comments
1 2 3 4 5
x 5
add to favorites
×
Save as Personal and add changes to this tab that will be seen only by you. Learn more ›
×
You can save this tab as Personal to edit and correct it or add notes. All changes will be seen only by you. Learn more »
save as personal
new!
launch autoscroll
font size
0
reset
how to read this tab
guitar tuner
Autoscroll
slow
fast
+/-
esc
set tempo
stop
-----------------------------------------------------------------------------
                             Birth - The Faint
-----------------------------------------------------------------------------
Album: wet from birth
Tabbed by:colin carlson
Email:yellowsnow312@yahoo.com
 
 this a pritty cool song
 by the faint and one of the only songs that they have an extensive guitar part.
 well i hope you like it. some of the parts are not exactly right
 but i thought it sounded good 

Tuning:normal
 
Intro

e|------3-----2-----0-----0-----|----3-----2-----0-----0---|
B|------------------------------|--------------------------|
G|------------------------------|--------------------------|
D|--2-2---2-2---2-2---2-2---2-2-|2-2---2-2---2-2---2-2---2-|
A|------------------------------|--------------------------|
E|------------------------------|--------------------------|

e|-----3-----2-----0-----0-----|-----7-----3-----2----|
B|-----------------------------|----------------------|
G|-----------------------------|----------------------|
D|-----------------------------|-------2-2---2-2------|
A|-3-3---3-3---3-3---3-3---3-3-|-7-7------------------|
E|-----------------------------|----------------------|

Verse
 Part1

e|------3-----2-----0-----0-----|
B|------------------------------|
G|------------------------------|
D|--2-2---2-2---2-2---2-2---2-2-|
A|------------------------------|
E|------------------------------|

e|-----3-----2-----0-----0-----|----3-----2-----0-----0------|
B|-----------------------------|-----------------------------|
G|-----------------------------|-----------------------------|
D|-----------------------------|2-2---2-2---2-2---2-2---2-2--|
A|-3-3---3-3---3-3---3-3---3-3-|-----------------------------|
E|-----------------------------|-----------------------------|

repeat 3x


bridge

e|-x----x----x---x----x---x---x---x--|-x----x----x---x----x---x-----x---|
B|-5xx--8xx-10xx-7xx--8xx-5xx-7xx-x--|-5xx--8xx-10xx-7xx--8xx-7xx---5~~-|
G|-xxx--xxx--xxx-xxx--xxx-xxx-xxx-x--|-xxx--xxx--xxx-xxx--xxx-xxx---x---|
D|-xxx--xxx--xxx-xxx--xxx-xxx-xxx-9~-|-xxx--xxx--xxx-xxx--xxx-xxx---x---|
A|-7xx-10xx-12xx-9xx-10xx-7xx-9xx-x--|-7xx-10xx-12xx-9xx-10xx-9xx---7~~-|
E|-x----x----x---x----x---x---x---7~-|-x----x----x---x----x---x-----x---|

verse
 part2

listen to the song for the beat your just playing along with the bass part

e|----------------------------|
B|----------------------------|
G|----------------------------|
D|----------------------------|
A|----------------------------|
E|--000000000000000000000000--|


e|-x----x----x--x----x----x--|3x then |--x----x----x---|
B|-5xx--8xx-10~-5xx--8xx-10~-|        |--8xx--7xx--5~~-|
G|-xxx--xxx--x--xxx--xxx--x--|        |--xxx--xxx--x---|
D|-xxx--xxx--x--xxx--xxx--x--|        |--xxx--xxx--x---|
A|-7xx-10xx-12~-7xx-10xx-12~-|        |-10xx--9xx--7~~-|
E|-x----x----x--x----x----x--|        |--x----x----x---|

e|------3-----2-----0-----0-----|----3-----2-----0-----0---|
B|------------------------------|--------------------------|
G|------------------------------|--------------------------|
D|--2-2---2-2---2-2---2-2---2-2-|2-2---2-2---2-2---2-2---2-|
A|------------------------------|--------------------------|
E|------------------------------|--------------------------|

e|-----3-----2-----0-----0-----|----3-----2-----0-----0------|
B|-----------------------------|-----------------------------|
G|-----------------------------|-----------------------------|
D|-----------------------------|2-2---2-2---2-2---2-2---2-2--|
A|-3-3---3-3---3-3---3-3---3-3-|-----------------------------|
E|-----------------------------|-----------------------------|

interlude

e|------3-----2-----0-----0-----|----3-----2-----0-----0---|
B|------------------------------|--------------------------|
G|------------------------------|--------------------------|
D|--2-2---2-2---2-2---2-2---2-2-|2-2---2-2---2-2---2-2---2-|
A|------------------------------|--------------------------|
E|------------------------------|--------------------------|

e|-----3-----2-----0-----0-----|----------7-----3-----2----|
B|-----------------------------|---------------------------|
G|-----------------------------|---------------------------|
D|-----------------------------|------------2-2---2-2------|
A|-3-3---3-3---3-3---3-3---3-3-|------7-7------------------|
E|-----------------------------|---------------------------|

e|-x----x----x---x----x---x---x---x--|-x----x----x---x----x---x-----x---|
B|-5xx--8xx-10xx-7xx--8xx-5xx-7xx-x--|-5xx--8xx-10xx-7xx--8xx-7xx---5~~-|
G|-xxx--xxx--xxx-xxx--xxx-xxx-xxx-x--|-xxx--xxx--xxx-xxx--xxx-xxx---x---|
D|-xxx--xxx--xxx-xxx--xxx-xxx-xxx-9~-|-xxx--xxx--xxx-xxx--xxx-xxx---x---|
A|-7xx-10xx-12xx-9xx-10xx-7xx-9xx-x--|-7xx-10xx-12xx-9xx-10xx-9xx---7~~-|
E|-x----x----x---x----x---x---x---7~-|-x----x----x---x----x---x-----x---|
3x then end



| ~  hold note
| x  Mute note
============================================================================
Suggest correction
comments
print report bad tab
3 comments total.
+2 reply
SSRI 10 Feb 11, 2006 08:03 AM

It sounds right, but it may be easier to do the intro/verse like this:

e|------------------0-----0-----|----------------0-----0---|
B|------8-----7-----------------|----8-----7---------------|
G|------------------------------|--------------------------|
D|------------------------------|--------------------------|
A|--7-7---7-7---7-7---7-7---7-7-|7-7---7-7---7-7---7-7---7-|
E|------------------------------|--------------------------|

e|-----------------0-----0-----|-----7----------------|
B|-----8-----7-----------------|-----------8-----7----|
G|-----------------------------|----------------------|
D|-----------------------------|----------------------|
A|-----------------------------|-7-7---7-7---7-7------|
E|-8-8---8-8---8-8---8-8---8-8-|----------------------|


this way, the notes are all on the frets adjacent to them rather than 5 frets away

0 reply
xShifty 10 Nov 12, 2008 12:31 PM

Thank you SSRI, I wondered why that last part was so hard. It didn't make sense to go all the way up for that 7

0 reply
scotch59 131 Oct 26, 2009 04:47 PM

great tab! 5 stars!

guest
Wanna post a correction for this tab? Suggest correction