Oops, an error
Loading. Please wait.

Posed To Death Bass Tab

version 2
version 2

Whole song

437 views 1 this week
no commentswrite comment
1 2 3 4 5
excellent!
x 1
add to favorites
launch autoscroll
font size
0
reset
guitar tuner
Tab Pro tools
  • play this tab
  • loop segment
  • change instrument
  • show fretboard
  • metronome
Autoscroll
slow
fast
+/-
esc
set tempo
stop
Contributor
Difficulty
novice
(0:00)
G|----------------|----------------|----------------|----------------|
D|----------------|----------------|----------------|----------------|
A|5-5-5-5-5-5-5-5-|5-5-5-5-5-5-5-5-|5-5-5-5-5-5-5-5-|5-5-5-5-5-5-5-5-|
E|----------------|----------------|----------------|----------------|

(0:23)
G|----------------|----------------|----------------|----------------|
D|------------7---|5-5-5-------5---|------------7---|5-5-5-------5---|
A|5-5-5-5-5-8---8-|------8-7-7---7-|5-5-5-5-5-8---8-|------8-7-7---7-|
E|----------------|----------------|----------------|----------------|

(0:47)
G|----------------|----------------|----------------|----------------|
D|------3---3-----|5-5---8------7--|------3---3-----|5-5---8-------7-|
A|5-5-------------|----------------|5-5-------------|----------------|
E|-------------3--|----------5-----|--------------3-|----------5-----|
comments
We did not receive enough feedback on this tab! Please rate:
print report bad tab
1 2 3 4 5
I want to post or [tab]
guest
You may want to rate the tab now too:
select rating
Please do not post tabs as comments. Select "correction" instead!