Oops, an error
Loading. Please wait.

The Conductor Bass Tab

550 views 3 this week
no commentswrite comment
1 2 3 4 5
excellent!
x 2
add to favorites
launch autoscroll
font size
0
reset
guitar tuner
Tab Pro tools
  • play this tab
  • loop segment
  • change instrument
  • show fretboard
  • metronome
Autoscroll
slow
fast
+/-
esc
set tempo
stop
Contributor
Difficulty
intermediate
(0:16)
G|----------------|----------------|----------------|----------------|
D|----------------|----------------|----------------|----------------|
A|----------------|----------------|----------------|----------------|
E|5~--------------|----------------|0~--------------|----------------|

(0:32)
G|----------------|----------------|----------------|----------------|
D|----------------|----------------|----------------|----------------|
A|----------------|----------------|----------------|----------------|
E|5-5-5-55-5888888|5-5-5-55-5888888|0-0-0-00-0000000|0-0-0-00-0000000|

(1:03)
G|----------------|----------------|----------------|----------------|
D|----------------|----------------|----------------|----------------|
A|----------------|----------------|----------------|----------------|
E|5~--------------|----------------|0~--------------|----------------|

(1:33)
G|----------------|----------------|----------------|
D|----------------|----------------|--------9-9-9-9-|
A|5-5-5-5-5-5-5-5-|8-8-8-8-8-8-8-8-|7-7-7-7---------|
E|----------------|----------------|----------------|

(1:39)
G|----------------|----------------|----------------|----------------|
D|----------------|----------------|----------------|----------------|
A|----------------|5-5---5-3-3---3-|----------------|5-5---5-3-3---3-|
E|5-5---5-5-5---5-|----------------|5-5---5-5-5---5-|----------------|

(1:54)
G|----------------|----------------|----------------|----------------|
D|----------------|----------------|----------------|----------------|
A|2-2-2-2-2-2-2-2-|--------3-3-3-3-|2-2-2-2-2-2-2-2-|--------3-3-3-3-|
E|----------------|3-3-3-3---------|----------------|3-3-3-3---------|

(2:02)
G|----------------|----------------|----------------|----------------|
D|----------------|----------------|----------------|----------------|
A|----------------|----------------|----------------|----------------|
E|5-5-5-55-5888888|5-5-5-55-5888888|0-0-0-00-0000000|0-0-0-00-0000000|

(2:18)
G|----------------|----------------|----------------|----------------|
D|----------------|----------------|----------------|----------------|
A|----------------|----------------|----------------|----------------|
E|5~--------------|----------------|0~--------------|----------------|

(2:33)
G|----------------|----------------|----------------|
D|----------------|----------------|--------9-9-9-9-|
A|5-5-5-5-5-5-5-5-|8-8-8-8-8-8-8-8-|7-7-7-7---------|
E|----------------|----------------|----------------|

(2:39)
G|----------------|----------------|----------------|----------------|
D|----------------|----------------|----------------|----------------|
A|----------------|5-5---5-3-3---3-|----------------|5-5---5-3-3---3-|
E|5-5---5-5-5---5-|----------------|5-5---5-5-5---5-|----------------|

(2:54)
G|----------------|----------------|----------------|----------------|
D|----------------|----------------|----------------|----------------|
A|2-2-2-2-2-2-2-2-|--------3-3-3-3-|2-2-2-2-2-2-2-2-|--------3-3-3-3-|
E|----------------|3-3-3-3---------|----------------|3-3-3-3---------|

(2:58)
G|----------------|----------------|----------------|----------------|
D|----------------|----------------|----------------|----------------|
A|----------------|5-5---5-3-3---3-|----------------|5-5---5-3-3---3-|
E|5-5---5-5-5---5-|----------------|5-5---5-5-5---5-|----------------|

(3:13)
G|----------------|--7---7---5---5-|----------------|--7---7---5---5-|
D|--7---7---7---7-|----------------|--7---7---7---7-|----------------|
A|----------------|5---5---3---3---|----------------|5---5---3---3---|
E|5---5---5---5---|----------------|5---5---5---5---|----------------|

comments
We did not receive enough feedback on this tab! Please rate:
print report bad tab
1 2 3 4 5
I want to post or [tab]
guest
You may want to rate the tab now too:
select rating
Please do not post tabs as comments. Select "correction" instead!