Oops, an error
Loading. Please wait.

A Classic Case Of Transference Bass Tab

version 1
version 1

Whole song

Interactive

1,727 views 9 this week
no commentswrite comment
1 2 3 4 5
x 3
add to favorites
launch autoscroll
font size
0
reset
guitar tuner
Autoscroll
slow
fast
+/-
esc
set tempo
stop
Help us to improve Ultimate-Guitar.com Take our survey!
×
Author
-------------------------------------------------------------------------------
	 A Classic Case Of Transference - The Fall Of Troy
-------------------------------------------------------------------------------

 Tabbed by:dvanwyk
 Email:dustinvanwyk@yahoo.com

 Tuning:Standard

 
 Intro
G|-------------------------------|
D|-------------------------------|
A|-------------------------------|
E|555555555555555555555555/------|

 (0.11)
G|----------------------|
D|----------------------|
A|---7-8----------------|
E|66-----11111111-------|

 Verse x3
G|--------------------------------------|---------|---------------------|
D|----------2-3-------------------------|---------|---------------------|
A|---3-5---------------------------3-5--|(Pause)--|---7-8---------------|
E|55------4------5--3--1-11111--55------|---------|66-----11111111------|

 Pre-Chorus
G|--------------------------------------------------------------|
D|--------------------------------------------5-4--------333-0--|
A|-----------7-9-----------10-9-7------------------55555--------|
E|77-10-7--6------77-10-7----------77-10-7--3-------------------|


 Chorus
G|--------------------------------------------------------------|
D|------------2/4-------------4/5-------------2/4---------------|
A|55-55-55-55-----22-22-11-11-----55-55-55-55-----22-22-44-77---|
E|--------------------------------------------------------------|

 Verse x3
 Pre-Chorus
 Chorus

 Bridge x2
G|---------------------------------------------------------------|
D|---------------------------------------------------------------|
A|5555---5555------------------------5555---5555-----------------|
E|-----4------4-555555-6-5-3-5-3-1--------4------4-55555-6666-5--|

 x3 (2.50)
G|-------7-9-10--9-7-----7-9----------------------|
D|12~----------------10------8~---7~--------------|
A|------------------------------------8-7-5-------|
E|------------------------------------------------|

  (3.22)
G|------------11-------------11-------12-11-9-----|
D|12h14-12h14----12h14-12h14----------------------|
A|------------------------------13~---------------|
E|------------------------------------------------|

G|------------11-------------11------------|
D|12h14-12h14----12h14-12h14---------------|
A|------------------------------13~--------|
E|-----------------------------------------|

 x2
G|---------------------------------------------------------------|
D|---------------------------------------------------------------|
A|5555---5555------------------------5555---5555-----------------|
E|-----4------4-555555-6-5-3-5-3-1--------4------4-55555-6666-5--|


G|---------------------|
D|---------------------|
A|---------------------|
E|6666-5-6666-5--5-----|

 Chorus

 (4.27)
G|------------11-------------11-------12-11-9-----|
D|12h14-12h14----12h14-12h14----------------------|
A|------------------------------13~---------------|
E|------------------------------------------------|


G|7~--------------|
D|----------------|
A|----------------|
E|----------------|
Suggest correction
Give kudos to tab author, rate the tab!
1 2 3 4 5
comments
print report bad tab
guest
You may want to rate the tab now too:
select rating
Wanna post a correction for this tab? Suggest correction