Oops, an error
Loading. Please wait.

A Classic Case Of Transference Tab

version 1
version 1

Whole song

Interactive

7,010 views 15 this week
4 commentsread comments
1 2 3 4 5
excellent!
x 6
add to favorites
launch autoscroll
font size
0
reset
how to read this tab
guitar tuner
Tab Pro tools
  • play this tab
  • loop segment
  • change instrument
  • show fretboard
  • metronome
Autoscroll
slow
fast
+/-
esc
set tempo
stop
Contributor
Difficulty
intermediate
Artist: The Fall of Troy
Song: A Classic Case of Transference
Album: In The Unlikely Event

enjoy. (:

intro:
lighly palm mute it and slow unmute it completely.

e|-------------------12121212-------------------------------------------|
b|----------13131313-13131313-10101010----------------------------------|
g|-14141414-14141414-14141414-10101010----------------------------------|
d|----------------------------------------------------------------------|
a|----------------------------------------------------------------------|
e|----------------------------------------------------------------------|

verse: the strumming and hammering on/pulling off pattern is weird here, so i'm just 
the notes you play and you can figure out the timing.

e|-8-h12-p8----|-7-h10-p7---|-8-h12-p8----|-5-h8-p5---|-8-h12-p8--------|
b|----------10-|----------9-|----------10-|---------6-|----------10-----|
g|-------------|------------|-------------|-----------|-----------------|
d|----(x2)-----|-----(x2)---|----(x2)-----|--(x2)-----|---(x2)----------|
a|-------------|------------|-------------|-----------|-----------------|
e|-------------|------------|-------------|-----------|-----------------|

here there is a weird sweep type thing.
something like this.
e|----7h10-----|--------------------------|
b|---9----9----|--------10----------------|
g|--7------7~~-|---10------10--------9----|
d|-9-----------|-8----8---------10-----10-|
a|-------------|--------------8----8------|
e|-------------|--------------------------|
               "everything was right until"

now repeat the whole part a few times.

pre-chorus:

(always play
this part first) (1st end
e|-------7-----|-------6-----|
b|---------7~~-|---------6~~-|
g|---7---------|---7---------|
d|-9---9-------|-8---8-------|
a|-------------|-------------|
e|-------------|-------------|

e|-------7-----|-------------|
b|---------7~~-|-------------|
g|---7---------|---------7---|
d|-9---9-------|----8------8-|
a|-------------|-10---10-----|
e|-------------|-------------|

e|-------7-----|-------3-----|----------------------------------------|
b|---------7~~-|---------3~~-|----------------------------------------|
g|---7---------|---3---------|-777777---------5ph---------------------|
d|-9---9-------|-5---5-------|-777777-555555--------------------------|
a|-------------|-------------|-555555-555555--------------------------|
e|-------------|-------------|--------333333--------------------------|
pm-                            ...... ......

chorus:
                      (first ending)      (second ending)
e|-------------5h7----------------5h7---|--------------------------------|
b|------------7---5~~-33-33-33---7---5~~|-33-33-33-3333------------------|
g|-77-77-77--7--------44-44-33--7-------|-44-44-44-4444--5ph-------------|
d|-77-77-77-----------44-44-33----------|-44-44-xx-xxxx------------------|
a|-55-55-55-----------22-22-11----------|-22-22-44-4444------------------|
e|--------------------------------------|--------------------------------|

do that a few times, then repeat verse, and prechorus, then chorus and end with this:
e|----------------------------------------------------------------|
b|-----10h11p10------10h11p10------10h11p10-----------------------|
g|---11--------11--11--------11--11---------11--------------------|
d|-12------------12------------12-------------12~~----------------|
a|----------------------------------------------------------------|
e|----------------------------------------------------------------|

bridge?:
e|-4444445-4444445-5~-65-6----------------------------------------------|
b|-6666666-6666666-5~---8-865~~-----------------------------------------|
g|-7777777-7777777-6~---------------------------------------------------|
d|-----------------5~---------------------------------------------------|
a|-----------------7~---------------------------------------------------|
e|-----------------5~---------------------------------------------------|
                                   (these are 10's and 11's)
e|-4444445-4444445-8h12p8--8h12p8---10101010109--101010109--------------|
b|-6666666-6666666-------10------10-111111111110-1111111110-------------|
g|-7777777-7777777------------------------------------------------------|
d|----------------------------------------------------------------------|
a|----------------------------------------------------------------------|
e|----------------------------------------------------------------------|

strum all the chords a little bit
e|----------------------------------------------------------------------|
b|----------------------------------------------------------------------|
g|-2-5p2-2--5-9p5-5----------5-7p5-5------------------------------------|
d|-3-----3--7-----7--5-7p5-5-7-----7------------------------------------|
a|-5-----5--8-----8--7-----7-7-----7------------------------------------|
e|-------------------6-----6-5-----5------------------------------------|

e|----------------------------------------------------------------------|
b|----------------------------------------------------------------------|
g|----------------------------------------------------------------------|
d|-3333333333337777777777777777-----------------------------------------|
a|-5555555555558888888888888888777777777777777777777777-----------------|
e|-----------------------------666666666666555555555555-----------------|
pm-....................................................

e|----------------------------------------------------------------|
b|-----10h11p10------10h11p10------10h11p10-----------------------|
g|---11--------11--11--------11--11---------11--------------------|
d|-12------------12------------12-------------12~~----------------|
a|----------------------------------------------------------------|
e|----------------------------------------------------------------|

e|-4444445-4444445-5~-65-6----------------------------------------------|
b|-6666666-6666666-5~---8-865~~-----------------------------------------|
g|-7777777-7777777-6~---------------------------------------------------|
d|-----------------5~---------------------------------------------------|
a|-----------------7~---------------------------------------------------|
e|-----------------5~---------------------------------------------------|
                                   (these are 10's and 11's)
e|-4444445-4444445-8h12p8--8h12p8---10101010109--101010109--------------|
b|-6666666-6666666-------10------10-111111111110-1111111110-------------|
g|-7777777-7777777------------------------------------------------------|
d|----------------------------------------------------------------------|
a|----------------------------------------------------------------------|
e|----------------------------------------------------------------------|

now chorus again, and then by playing this a few this a few times.

e|---------------------------------9h10p9------10-12-14-----------|
b|-----10h11p10------10h11p10----11------11--11-------------------|
g|---11--------11--11--------1112----------12---------------------|
d|-12------------12-----------------------------------------------|
a|----------------------------------------------------------------|
e|----------------------------------------------------------------|
comments
print report bad tab
4 comments total. Showing first comments.
+1 reply
EpilepticKitten wrote on December 7 2009, 06:24 pm

this is so close to completely perfect. the only real error i noticed is that little fill during the bridge. i can't figure out what it is either.

but thanks a whole lot for making this tab. you made my life complete.

0 reply
ianmckay. wrote on July 18 2011, 01:19 am

yeah i noticed the bridge thing too, but anyway nice tab!

+1 reply
and1streeter wrote on August 1 2011, 05:41 pm

this is just my opinion.....i mean the tab is great!! But I think the first part of the verse riff goes like this. (small correction I know)
e:-8h12p8----|-7h10p7--|--8h12p8---|-5h8p5---|
B:--------10-|---------|--------10-|---------|
G:-----------|---------|-----------|---------|
D:----x2-----|---x3----|-----x2----|---x3----|
A:-----------|---------|-----------|---------|
E:-----------|---------|-----------|---------|

like I said, I know it's a very small change....but I also think it's correct. lol

I want to post or [tab]
guest
You may want to rate the tab now too:
select rating
Please do not post tabs as comments. Select "correction" instead!