Oops, an error
Loading. Please wait.

A Man A Plan A Canal Panama Bass Tab

version 1
version 1

Whole song

Interactive

2,308 views 1 this week
no commentswrite comment
1 2 3 4 5
please rate
add to favorites
launch autoscroll
font size
0
reset
guitar tuner
Autoscroll
slow
fast
+/-
esc
set tempo
stop
Help us to improve Ultimate-Guitar.com Take our survey!
×
Author
-------------------------------------------------------------------------------
		 A Man a Plan a Canal Panama - The Fall Of Troy
-------------------------------------------------------------------------------

 Tabbed by:dvanwyk
 Email:dustinvanwyk@yahoo.com

 Tuning:Standard


G|------------------------999-9-12-9--777-7------999-9-12-9---------------------|
D|------------------------------------------7-9---------------------------------|
A|----7--777-3-3-(Pause)-------------------------------------3-3-3-3-3-3-/7~----|
E|000---------------------------------------------------------------------------|

 x2
G|----------------------------------------------------------------|
D|----------------------------------------------------------------|
A|555-5-7-88---------555-5-7-88-----------------------------------|
E|-----------555555--------------0-8-7/--00-8-7/--00-3-2--00-3-2--|

 
G|------10---9------------10---9-------------------------------------|
D|--7------7---7------7------7---7--------2---------------2----------|
A|8---8-------------8---8-------------2-3---3-2-22----2-3---3-2-22---|
E|-------------------------------------------------------------------|

G|----------------------------------|
D|---------6---------------6--------|
A|---7---6---6-------7---6---6------|
E|00---0----------00---0------------|

 
G|------10---9------------10---9-------------------------------------|
D|--7------7---7------7------7---7--------2---------------2----------|
A|8---8-------------8---8-------------2-3---3-2-22----2-3---3-2-22---|
E|-------------------------------------------------------------------|

G|---------------------------|
D|---------6-----------------|
A|---7---6---6--3-3-3-3-3-3--|
E|00---0---------------------|

 x2
G|----------------------------------------------------------------|
D|----------------------------------------------------------------|
A|555-5-7-88---------555-5-7-88-----------------------------------|
E|-----------555555--------------0-8-7/--00-8-7/--00-3-2--00-3-2--|


G|------------------------999-9-12-9--777-7------999-9-12-9---------------|
D|------------------------------------------7-9---------------------------|
A|----7--777-3-3-(Pause)-------------------------------------3-3-3-3-3-3--|
E|000---------------------------------------------------------------------|


 x2
G|----------------7-----9--------------------9-------12-------15---|
D|----5----8----5-----8--------8------11---8------11-------14------|
A|--4----7----4-----7--------7-----10----7-----10-------13---------|
E|3----6-------------------6-----9---------------------------------|

 x2
G|-----------------------------------------------------|
D|--------------------555-------------------------888--|
A|----------4-4-4-777----------------7-7-7-101010------|
E|3-3-3-666----------------6-6-6-999-------------------|

G|----------------------------------|
D|55555555--------------------------|
A|---------44444444----------4~-----|
E|------------------66666666--------|


G|--------------------------------------------------------------|
D|--------------------------------------------------------------|
A|--------------------------------------------------------7-10--|
E|6-3-2-3-4-3-4--3-2-3-2-3-4-3--2-2-6--2-3-4-3-4-2-3--6-9-------|

G|-------------------------------------------------------------------------|
D|-------------------------------------------------------------------------|
A|---------------------------------------------------------------7~---10~--|
E|6-3-2-3-4-3-4--3-2-3-2-3-4-3--2-2--6-2-3-4-3-4-2-3--6~---7~--------------|

G|-----------------------------------------------------------------------------|
D|-----------------------------------------------------------------------------|
A|--------------------------------------------------------------------7~---10~-|
E|6-3-2-3-4-3-4--3-2-3-2-3-4-3--222-3-222-3-6-2-3-4-3-4-2-3--6~---7~-----------|
 
G|---------------------------------------------------------------------------------|
D|------------------------------------------------------------------------------8~-|
A|--------------------------------------------------------------------7~---10~-----|
E|6-3-2-3-4-3-4--3-2-3-2-3-4-3--222-3-222-3-6-2-3-4-3-4-2-3--6~---7~---------------|


 Pause


 x4 (4.02)
G|------------------|
D|7h9----7----------|
A|----10---7--------|
E|------------------|

 x2
G|11--------------11-----------9-|
D|--12-9-12-9-9-----12-9-12-9----|
A|-------------------------------|
E|-------------------------------|

 x4
G|------------------|
D|7h9----7----------|
A|----10---7--------|
E|------------------|

 x2
G|11--------------11-----------9-|
D|--12-9-12-9-9-----12-9-12-9----|
A|-------------------------------|
E|-------------------------------|

 x2
G|------------------------------------------------------------------------|
D|------------------------------------------------------------------------|
A|------------------------------------555555-33333333-2222222-/777777777--|
E|55555555-00000000-55555555-00000000-------------------------------------|


 x2
G|----------------7-----9--------------------9-------12-------15---|
D|----5----8----5-----8--------8------11---8------11-------14------|
A|--4----7----4-----7--------7-----10----7-----10-------13---------|
E|3----6-------------------6-----9---------------------------------|

x2
G|-----------------------------------------------------|
D|--------------------555-------------------------888--|
A|----------4-4-4-777----------------7-7-7-101010------|
E|3-3-3-666----------------6-6-6-999-------------------|

G|----------------------------------|
D|55555555--------------------------|
A|---------44444444----------4~-----|
E|------------------66666666--------|



G|--------------------------------------------------------------------------------|
D|--------4-5-4-5---------------------------4-5-4-5-9-----7---5---4---------------|
A|5-7-5-7----------------7---6------5-7-5-7-----------10----9---7---5--6666-22-3--|
E|----------------5-7--8---7---2-3------------------------------------------------|


 x3
G|-----------------------------------------------------------------------|
D|-----------------9p7------9p7------9p7-9p7-9p7------9p7------9p7-------|
A|7-10-7~--6-9-6~------10-7-----10-7-------------10-7-----10-7-----10-7--|
E|-----------------------------------------------------------------------|

G|-------------------------|
D|-------------------------|
A|----2-3--5h7-5-66666-----|
E|5-3----------------------|

 x2
G|--------------------------------------------------------------------------------|
D|--------4-5-4-5---------------------------4-5-4-5-9-----7---5---4---------------|
A|5-7-5-7----------------7---6------5-7-5-7-----------10----9---7---5--6666-22-3--|
E|----------------5-7--8---7---2-3------------------------------------------------|

 x2
G|-------------------------------------------3--------2-------|
D|------------------------------------------------------------|
A|------------------------------------------------------------|
E|5-5-555-5-5---0-0-000-0-0---5-5-555-5-5--2---2-2-21---1-1---|

 x8
G|-------------------------|
D|-------------------------|
A|-------------------------|
E|0-8-0-8-0000000-0-8-0----|

 x4 (7.32)
G|------------------------------|
D|------------------------------|
A|----------------777-6-777-6---|
E|/0--0-(Pause)-----------------|

 x2
G|---4------5------7----9-------------------------------------|
D|---------------------------------/1010-10-10----------------|
A|22---2-33---3-55---77---7-66-6-6--------------777-6-777-6---|
E|------------------------------------------------------------|

 x2
G|---------------------------------------------------|
D|------------------------------------/101010101010--|
A|222222-333333-5555555-777777-666666----------------|
E|---------------------------------------------------|

G|------------------------------|
D|------------------------------|
A|777-6-777-6-777-6-777-9-10/---|
E|------------------------------|
Suggest correction
Give kudos to tab author, rate the tab!
1 2 3 4 5
comments
print report bad tab
guest
You may want to rate the tab now too:
select rating
Please do not post tabs as comments. Select "correction" instead!