Oops, an error
Loading. Please wait.

A Single Word tab

version 1
version 1

Whole song

Interactive

1,075 views 12 this week
no commentswrite comment
1 2 3 4 5
2 more votes to show rating
add to favorites
×
Save as Personal and add changes to this tab that will be seen only by you. Learn more ›
×
You can save this tab as Personal to edit and correct it or add notes. All changes will be seen only by you. Learn more »
launch autoscroll
font size
0
reset
how to read this tab
guitar tuner
edit
Autoscroll
slow
fast
+/-
esc
set tempo
stop
Author
I believe this tab is correct, except for the chords. I can't seem to make those out quite yet. If you 
have any corrections, feel free to leave them in the comments! This is probably the easiest song on the album 
besides Lovesick


[Intro]

These chords pretty much make up the entire song

eb|------------------------------------------5*------------------------------------------|
Bb|------------------------------------------5*------------------------------------------|
Gb|---9-9-9-9--0-0-0-0--7-7-7-7--5-5-5-5-----5*------------------------------------------|
Db|---7-7-7-7--5-5-5-5--5-5-5-5--5-5-5-5-------------------------------------------------|
Ab|---8-8-8-8--7-7-7-7--7-7-7-7--7-7-7-7------------/12----------------------------------|
Eb|-------------------------------------------------/12----------------------------------|


[Chorus]

eb|------------------------------------------12p0-------------------------------------------|
Bb|----------------------------------------------12h13p08h10p0------------------------------|
Gb|--------9-----------------7--------------------------------------------------------------|
Db|--7-7-7-7--5-5-5-5--5-5-5-5--5-5-5-5-----------------------------------------------------|
Ab|--8-8-8-8--7-7-7-7--7-7-7-7--7-7-7-7-----------------------------------------------------|
Eb|-----------------------------------------------------------------------------------------|
     . . .    . . . .  . . .    . . . .


eb|------------------------------------------17p15------------------------------------------|
Bb|-----------------------------------------------17p15-13----------------------------------|
Gb|--------9-----------------7----------------------------15*-------------------------------|
Db|--7-7-7-7--5-5-5-5--5-5-5-5--5-5-5-5-----------------------------------------------------|
Ab|--8-8-8-8--7-7-7-7--7-7-7-7--7-7-7-7-----------------------------------------------------|
Eb|-----------------------------------------------------------------------------------------|
     . . .    . . . .  . . .    . . . .


eb|-----------------------------------------------------------------------------------------|
Bb|-----------------------------------------------------------------------------------------|
Gb|--------9-----------------7--------------------------------------------------------------|
Db|--7-7-7-7--5-5-5-5--5-5-5-5--5-5-5-5-----------------------------------------------------|
Ab|--8-8-8-8--7-7-7-7--7-7-7-7--7-7-7-7---7-7-7-7-7-7-7-------------------------------------|
Eb|---------------------------------------7-7-7-7-7-7---------------------------------------|
     . . .    . . . .  . . .    . . . .   . . . . . .


eb|------------------------------------------17p15------------------------------------------|
Bb|-----------------------------------------------17p15-13----------------------------------|
Gb|--------9-----------------7----------------------------15*-------------------------------|
Db|--7-7-7-7--5-5-5-5--5-5-5-5--5-5-5-5-----------------------------------------------------|
Ab|--8-8-8-8--7-7-7-7--7-7-7-7--7-7-7-7-----------------------------------------------------|
Eb|-----------------------------------------------------------------------------------------|
     . . .    . . . .  . . .    . . . .



[Verse]

eb|---------------------------------------------------------------------------|
Bb|---------------------------------------------------------------------------|
Gb|----9----5----7----5----5p0-5p0--------------------------------------------|
Db|---7----5----5----5----7---------------------------------------------------|
Ab|--8----7----7----7----7----------------------------------------------------|
Eb|---------------------------------------------------------------------------|
     ..   ..   ..   ..   ..

eb|---------------------------------------------------------------------------|
Bb|------------------------6/8/6p0--------------------------------------------|
Gb|----9----5----7----5-------------------------------------------------------|
Db|---7----5----5----5----7---------------------------------------------------|
Ab|--8----7----7----7----7----------------------------------------------------|
Eb|---------------------------------------------------------------------------|
     ..   ..   ..   ..   ..

eb|---------------------------------------------------------------------------|
Bb|---------------------------------------------------------------------------|
Gb|----9----5----7----5----5p0-5p0--------------------------------------------|
Db|---7----5----5----5----7---------------------------------------------------|
Ab|--8----7----7----7----7----------------------------------------------------|
Eb|---------------------------------------------------------------------------|
     ..   ..   ..   ..   ..

eb|---------------------------------------------------------------------------|
Bb|---------------------------------------------------------------------------|
Gb|----9----5----7----5-------------------------------------------------------|
Db|---7----5----5----5--------------------------------------------------------|
Ab|--8----7----7----7---------------------------------------------------------|
Eb|---------------------------------------------------------------------------|
     ..   ..   ..   ..

Then repeat again from the chorus

Fun part: 1:17-1:35

eb|---------------------------------------------------------------------------|
Bb|---------------0-7/8p0------------------------0-7\5------------------------|
Gb|----------------------7/9p0------------------------------------------------|
Db|---------5h7h9-------------7h9p0--------5h7h9-----------xxxx\\\------------|
Ab|----5h7h9--------------------------5h7h9----------------xxxx\\\------------|
Eb|--------------------------------------------------------xxxx\\\------------|

eb|---------------------------------------------------------------------------|
Bb|---------------0-7/8p0------------------------0-7/8p0----------------------|
Gb|----------------------7/9p0--------------------------7/9p0-----------------|
Db|---------5h7h9-------------7h9p0--------5h7h9-------------7h9p0------------|
Ab|----5h7h9--------------------------5h7h9-----------------------------------|
Eb|---------------------------------------------------------------------------|

eb|-------------0-7/8p0-------------------------0-7/8p0------10h12p0----------|
Bb|--------------------8/10p0--------------------------8/10p0-----------------|
Gb|-------5h7h9--------------7h9p0--------5h7h9-------------------------------|
Db|--5h7h9---------------------------5h7h9------------------------------------|
Ab|---------------------------------------------------------------------------|
Eb|---------------------------------------------------------------------------|


1:36-1:58

eb|--------------------------------------------------------------------------|
Bb|------/12-12/13\\\------/12-12/13\\\------/12-12/13\\\--------------------|
Gb|--9-9---------------9-9---------------9-9---------------9b----------------|
Db|--------------------------------------------------------------------------|
Ab|--------------------------------------------------------------------------|
Eb|--------------------------------------------------------------------------|


eb|---------------------------------------------------------12p0-12-10p0--10h12///-|
Bb|------/12-12/13\\\------/12-12/13\\\------/12-12/13\\\--------------------------|
Gb|--9-9---------------9-9---------------9-9---------------------------------------|
Db|--------------------------------------------------------------------------------|
Ab|--------------------------------------------------------------------------------|
Eb|--------------------------------------------------------------------------------|

                                       Trem pick these notes

eb|----------------------------------------12-10----------------------------|
Bb|------/12-12/13\\\------/12-12/13\\\----------12-------------------------|
Gb|--9-9---------------9-9--------------------------12-9-12-----------------|
Db|-------------------------------------------------------------------------|
Ab|-------------------------------------------------------------------------|
Eb|-------------------------------------------------------------------------|


1:58-2:13
Play this three times:

eb|-------------------------------------------------------------------------|
Bb|--------------12p0-12p0-12p0-13p0-13p0-----------------------------------|
Gb|--9p0-9p0-9p0------------------------------------------------------------|
Db|-------------------------------------------------------------------------|
Ab|-------------------------------------------------------------------------|
Eb|-------------------------------------------------------------------------|

On the fourth time:

eb|--------------10p0-10p0-10p0-12p0-12p0-----------------------------------|
Bb|-------------------------------------------------------------------------|
Gb|--9p0-9p0-9p0------------------------------------------------------------|
Db|-------------------------------------------------------------------------|
Ab|-------------------------------------------------------------------------|
Eb|-------------------------------------------------------------------------|


Then play this two times and add the trem picked notes:

eb|-------------------------------------------------------------------------|
Bb|--------------12p0-12p0-12p0-13p0-13p0-----------------------------------|
Gb|--9p0-9p0-9p0------------------------------------------------------------|
Db|-------------------------------------------------------------------------|
Ab|-------------------------------------------------------------------------|
Eb|-------------------------------------------------------------------------|

2:13-2:16

eb|------------------------------5*------------------------------------------|
Bb|------------------------------5*------------------------------------------|
Gb|---9999--0000--7777--5555-----5*------------------------------------------|
Db|---7777--5555--5555--5555-------------------------------------------------|
Ab|---8888--7777--7777--7777------------/12----------------------------------|
Eb|-------------------------------------/12----------------------------------|

2;17-2:31

eb|--------------------------------------------------------------------------|
Bb|--------------------------------------------------------------------------|
Gb|----9----5----7----5------------------------------------------------------|
Db|---7----5----5----5-------------------------------------------------------|
Ab|--8----7----7----7--------------------------------------------------------|
Eb|--------------------------------------------------------------------------|
     ..   ..   ..   ..


Then repeat the chorus for 2:32-2:46

eb|------------------------------------------12p0-------------------------------------------|
Bb|----------------------------------------------12h13p08h10p0------------------------------|
Gb|--------9-----------------7--------------------------------------------------------------|
Db|--7-7-7-7--5-5-5-5--5-5-5-5--5-5-5-5-----------------------------------------------------|
Ab|--8-8-8-8--7-7-7-7--7-7-7-7--7-7-7-7-----------------------------------------------------|
Eb|-----------------------------------------------------------------------------------------|
     . . .    . . . .  . . .    . . . .


eb|------------------------------------------17p15------------------------------------------|
Bb|-----------------------------------------------17p15-13----------------------------------|
Gb|--------9-----------------7----------------------------15*-------------------------------|
Db|--7-7-7-7--5-5-5-5--5-5-5-5--5-5-5-5-----------------------------------------------------|
Ab|--8-8-8-8--7-7-7-7--7-7-7-7--7-7-7-7-----------------------------------------------------|
Eb|-----------------------------------------------------------------------------------------|
     . . .    . . . .  . . .    . . . .


eb|-----------------------------------------------------------------------------------------|
Bb|-----------------------------------------------------------------------------------------|
Gb|--------9-----------------7--------------------------------------------------------------|
Db|--7-7-7-7--5-5-5-5--5-5-5-5--5-5-5-5-----------------------------------------------------|
Ab|--8-8-8-8--7-7-7-7--7-7-7-7--7-7-7-7---7-7-7-7-7-7-7-------------------------------------|
Eb|---------------------------------------7-7-7-7-7-7---------------------------------------|
     . . .    . . . .  . . .    . . . .   . . . . . .


eb|------------------------------------------17p15------------------------------------------|
Bb|-----------------------------------------------17p15-13----------------------------------|
Gb|--------9-----------------7----------------------------15*-------------------------------|
Db|--7-7-7-7--5-5-5-5--5-5-5-5--5-5-5-5-----------------------------------------------------|
Ab|--8-8-8-8--7-7-7-7--7-7-7-7--7-7-7-7-----------------------------------------------------|
Eb|-----------------------------------------------------------------------------------------|
     . . .    . . . .  . . .    . . . .


2:46-3:01

eb|--------------------------------------------------------------------------------------|
Bb|--------------------------------------------------------------------------------------|
Gb|---9-9-9--0-0-0--7-7-7--5-5-5--------0------------------------------------------------|
Db|---7-7-7--5-5-5--5-5-5--5-5-5--5-5-5-5------------------------------------------------|
Ab|---8-8-8--7-7-7--7-7-7--7-7-7--7-7-7-7------------------------------------------------|
Eb|--------------------------------------------------------------------------------------|
             . .    . .    . .    . . .

eb|----------------------------------------------------------------------------------|
Bb|----------------------------------------------------------------------------------|
Gb|---9-9-9--0-0-0--7-7-7--5-5-5---10-10--10-10--------------------------------------|
Db|---7-7-7--5-5-5--5-5-5--5-5-5---x--x---x--x---------------------------------------|
Ab|---8-8-8--7-7-7--7-7-7--7-7-7---8--8---8--8---------------------------------------|
Eb|----------------------------------------------------------------------------------|
      . .    . .    . .    . .

eb|-----------------------------------------------------------------------------------|
Bb|-----------------------------------------------------------------------------------|
Gb|---9-9-9--0-0-0--7-7-7--5-5-5--------0---------------------------------------------|
Db|---7-7-7--5-5-5--5-5-5--5-5-5--5-5-5-5---------------------------------------------|
Ab|---8-8-8--7-7-7--7-7-7--7-7-7--7-7-7-7---------------------------------------------|
Eb|-----------------------------------------------------------------------------------|
      . .    . .    . .    . .    . . .

                                Bend this harmonic at the neck

eb|------------------------------------------5*------------------------------------------|
Bb|------------------------------------------5*------------------------------------------|
Gb|---9-9-9-9--0-0-0-0--7-7-7-7--5-5-5-5-----5*------------------------------------------|
Db|---7-7-7-7--5-5-5-5--5-5-5-5--5-5-5-5-------------------------------------------------|
Ab|---8-8-8-8--7-7-7-7--7-7-7-7--7-7-7-7-------------------------------------------------|
Eb|--------------------------------------------------------------------------------------|

3:02-3:16
Again, play this three times:

eb|-------------------------------------------------------------------------|
Bb|--------------12p0-12p0-12p0-13p0-13p0-----------------------------------|
Gb|--9p0-9p0-9p0------------------------------------------------------------|
Db|-------------------------------------------------------------------------|
Ab|-------------------------------------------------------------------------|
Eb|-------------------------------------------------------------------------|

On the fourth time:

eb|--------------10p0-10p0-10p0-12p0-12p0-----------------------------------|
Bb|-------------------------------------------------------------------------|
Gb|--9p0-9p0-9p0------------------------------------------------------------|
Db|-------------------------------------------------------------------------|
Ab|-------------------------------------------------------------------------|
Eb|-------------------------------------------------------------------------|


Then again, play this two times and add the trem picked notes:

eb|-------------------------------------------------------------------------|
Bb|--------------12p0-12p0-12p0-13p0-13p0-----------------------------------|
Gb|--9p0-9p0-9p0------------------------------------------------------------|
Db|-------------------------------------------------------------------------|
Ab|-------------------------------------------------------------------------|
Eb|-------------------------------------------------------------------------|

eb|-------------------------------------------------------------------------------|
Bb|------/12-12/13\\\------/12-12/13\\\------/12-12/13\\\------/12-12/13\\\-------|
Gb|--9-9---------------9-9---------------9-9---------------9-9---------------9b---|
Db|-------------------------------------------------------------------------------|
Ab|-------------------------------------------------------------------------------|
Eb|-------------------------------------------------------------------------------|



************************************

| x  Dead note
| h  Hammer-on
| p  Pull-off
| b  Bend
| /  Slide up
| \  Slide down

************************************

            
            
Suggest correction
Creating personal tab
Creating personal tab
You can edit any tab online and save it as your Personal.

You can edit, replace or remove any tab part or add personal notes – all changes will be seen only by you.

Personal tabs can be accessed anytime from any device, even offline.
Learn more »
Give kudos to tab author, rate the tab!
1 2 3 4 5
comments
print report bad tab
guest
You may want to rate the tab now too:
select rating
Wanna post a correction for this tab? Suggest correction