Oops, an error
Loading. Please wait.

A Tribute To Orville Wilcox tab

version 1
version 1

Whole song

Interactive

1,238 views 3 this week
1 commentread comment
1 2 3 4 5
x 3
add to favorites
×
Save as Personal and add changes to this tab that will be seen only by you. Learn more ›
×
You can save this tab as Personal to edit and correct it or add notes. All changes will be seen only by you. Learn more »
launch autoscroll
font size
0
reset
how to read this tab
guitar tuner
edit
Autoscroll
slow
fast
+/-
esc
set tempo
stop
Author
A tribute to Orville Wilcox

#Intro 1A# ()=Palm-mute
e|-------------------------------------------------------------------------------------------------------------------------|
B|-------------------------------------------------------------------------------------------------------------------------|
G|---10-(10-10)-10-(10-10)-10-(10-10)-9--(9--9)--9--(9--9)-10-(10-10)-10-(10-10)-10-(10-10)-9--(9--9)--9--(9--9)-----------|
D|-------------------------------------------------------------------------------------------------------------------------|
A|---8--(8--8-)-8--(8--8-)-8--(8--8-)-7--(7--7)--7--(7--7)-8--(8--8-)-8--(8--8-)-8--(8--8-)-7--(7--7)--7--(7--7)-----------|
E|-------------------------------------------------------------------------------------------------------------------------|

#Intro 1B# h=hammer on p=pull off
e|---------------------8-----------------------------------------------------8---------------------------------------------|
B|---8h10p8----6-----------------8------------10-----------8h10p8----6-----------------8------------10---------------------|
G|---------------------------------------------------10----------------------------------------------------10--------------|
D|-------------------------------------------------------------------------------------------------------------------------|
A|-------------------------------------------------------------------------------------------------------------------------|
E|-------------------------------------------------------------------------------------------------------------------------|

#Intro 1A (cont.)# ()=Palm-mute
e|-------------------------------------------------------------------------------------------------------------------------|
B|-------------------------------------------------------------------------------------------------------------------------|
G|---7--(7--7)--7--(7--7)--7--(7--7)--5--(5--5)--5--(5--5)-3--(3--3)--3--(3--3)--3--(3--3)--2--(2--2)--2--(2--2)-----------|
D|-------------------------------------------------------------------------------------------------------------------------|
A|---5--(5--5)--5--(5--5)--5--(5--5)--3--(3--3)--3--(3--3)-1--(1--1)--1--(1--1)--1--(1--1)--0--(0--0)--0--(0--0)-----------|
E|-------------------------------------------------------------------------------------------------------------------------|

#Intro 1B (cont.)# h=hammer on p=pull off 
e|---------------------8-----------------------------------------------------8~~~~----------8------8---8------8------------|
B|---8h10p8----6-----------------8------------10-----------8h10p8----6-----------------------------------------------------|
G|---------------------------------------------------10--------------------------------------------------------------------|
D|-------------------------------------------------------------------------------------------------------------------------|
A|-------------------------------------------------------------------------------------------------------------------------|
E|-------------------------------------------------------------------------------------------------------------------------|

#Intro 2A# *=Play 6-8x #=Play 3-4x
e|-------------------------------------------------------------------------------------------------------------------------|
B|-----*-----------#--------*----------#------------*-----------#----------------------------------------------------------|
G|---10-----------9-------10----------9------------7-----------5-----------*---------------#-------------------------------|
D|------------------------------------------------------------------------8---------------7--------------------------------|
A|---8------------7-------8-----------7------------5-----------3-----------------------------------------------------------|
E|------------------------------------------------------------------------6---------------5--------------------------------|

#Intro 2B# h=hammer on p=pull off
e|--------------8------------------------8--------------------------8------------------------8-----------------------------|
B|---8h10p8--6-----8--10------8h10p8--6-----8--10--------8h10p8--6-----8--10------8h10p8--6-----8--10----------------------|
G|------------------------10-----------------------10-------------------------10-----------------------10------------------|
D|-------------------------------------------------------------------------------------------------------------------------|
A|-------------------------------------------------------------------------------------------------------------------------|
E|-------------------------------------------------------------------------------------------------------------------------|

#Verse 1A# Play 2x p=pull off /=slide h=hammer on
e|----------------10p0---------------------------------10p0--------12p0-12p0-----------------------------------------------|
B|---10p8p0--6/8--------12p0--10p0-10p0---10p8p0--6/8--------12p0----------------------------------------------------------|
G|------------------------------------------------------------------------------12---12---12-12-12---14---14---14-14-14----|
D|-------------------------------------------------------------------------------------------------------------------------|
A|------------------------------------------------------------------------------10---10---10-10-10---12---12---12-12-12----|
E|--|----------------PLAY-------------------------2x------------------------|----------------------------------------------|

#Verse 1B# Play 2x p=pull off h=hammer on
e|----------------8------------------------------------8-------------------------------------------------------------------|
B|---8h10p8--6----------8-----10----------8h10p8--6----------8-----10------------------------------------------------------|
G|---------------------------------10------------------------------------10-----12---12---12-12-12---14---14---14-14-14----|
D|-------------------------------------------------------------------------------------------------------------------------|
A|------------------------------------------------------------------------------10---10---10-10-10---12---12---12-12-12----|
E|--|----------------PLAY-------------------------2x------------------------|----------------------------------------------|

#Chorus 1A# Play 2x *=play 8x
e|-------------------------------------------------------------------------------------------------------------------------|
B|------------------------------------------------*-----*-----*-----*------------------------------------------------------|
G|---9---9---9-9-9------12---12---12-12-12------14----12----14----17-------------------------------------------------------|
D|-------------------------------------------------------------------------------------------------------------------------|
A|---7---7---7-7-7------10---10---10-10-10------12----10----12----15-------------------------------------------------------|
E|-------------------------------------------------------------------------------------------------------------------------|

#Chorus 1B# Play 2x *=play 8x
e|---------------------|-1.---------------|-------------------------------|---|-2.----------|------------------------------|
B|------------------------------------------------*-----*-----*-----*-----|------------------------------------------------|
G|---9---9---9-9-9------12---12---12-12-12------14----12----14----17------|----7---7---7-7-7-------------------------------|
D|------------------------------------------------------------------------|------------------------------------------------|
A|---7---7---7-7-7------10---10---10-10-10------12----10----12----15------|----5---5---5-5-5-------------------------------|
E|------------------------------------------------------------------------|------------------------------------------------|

> Play Verse 1A & Verse 1B through Chorus 1A & Chorus 1B 

#Crushing 1A# v=vibrato >=pick scrape b=bend
e|-------------------------------------------------------------------------------------------------------------------------|
B|--------------15v----------20b--------------------0~~~-------------------------------------------------------------------|
G|---12---------14v----------19b--------------------0~~~-------------------------------------------------------------------|
D|------------------->>>>--------------------------------------------------------------------------------------------------|
A|---10--->>>-------->>>>--------------------------------------------------------------------------------------------------|
E|-------->>>--------------------------------------------------------------------------------------------------------------|

#Crushing 1B# >=pick scrape p=pull off
e|---------------------------15-15-15-15p14p0------------------------------------------------------------------------------|
B|--------------12h13-------------------------------0~~~-------------------------------------------------------------------|
G|---12---------------------------------------------0~~~-------------------------------------------------------------------|
D|-------------------->>>>-------------------------------------------------------------------------------------------------|
A|---10--------------->>>>-------------------------------------------------------------------------------------------------|
E|-------------------->>>>-------------------------------------------------------------------------------------------------|

#Outro 1A# ( )=clean b=bend
e|-------------------------------------------------------------------------------------------------------------------------|
B|-------------------------------------------------------------------------------------------------------------------------|
G|--(14--14--14--14----14--14--14--14----14-14-14-12----12)---12b---12b----------------------------------------------------|
D|-------------------------------------------------------------------------------------------------------------------------|
A|--(12--12--12--12----12--12--12--12----12-12-12-10----10)---10b---10b----------------------------------------------------|
E|-------------------------------------------------------------------------------------------------------------------------|

#Outro 1B# b=bend
e|-------------------------------------------------------------------------------------------------------------------------|
B|-------------------------------------------------------------------------------------------------------------------------|
G|------------------------------------------------------------------12b----------------------------------------------------|
D|-------------------------------------------------------------------------------------------------------------------------|
A|------------------------------------------------------------------10b----------------------------------------------------|
E|-------------------------------------------------------------------------------------------------------------------------|

#Outro 2A# 
e|--|--------------------PLAY--------------4x--------------------------------------|-4.------------------------------------|
B|----------------------------------------------------------------------------------------------------------------13-------|
G|---14--14--14--14----14--14--14--14----14-14-14-12--------12--------12--------12----12--12--12--12--12--12--12--12-------|
D|-------------------------------------------------------------------------------------------------------------------------|
A|---12--12--12--12----12--12--12--12----12-12-12-10--------10--------10--------10----10--10--10--10--10--10--10--10-------|
E|-------------------------------------------------------------------------------------------------------------------------|

#Outro 2B# h=hammer on p=pull off
e|--|------------PLAY-----------------4x------------|-1.------10h12p10--10h12p10---|-2.---8--10-10-8-10-8--10-8-8h10p8p0---|
B|--------------------------------------------------------------------13--------13-----------------------------------------|
G|---14--14--14--14----14--14--14--14----14-14-14-12--------12-------------------------------------------------------------|
D|-------------------------------------------------------------------------------------------------------------------------|
A|---12--12--12--12----12--12--12--12----12-12-12-10--------10-------------------------------------------------------------|
E|-------------------------------------------------------------------------------------------------------------------------|

#Outro 2B (cont.)# /=slide 
e|---|-3.---10/12--12--12/15--15--15/17--17--17/20--20-----------------------------|-4.------------------------------------|
B|----------------------------------------------------------------------------------------------------------------13-------|
G|------------------------------------------------------------------------------------12--12--12------12------12--12-------|
D|------------------------------------------------------------------------------------------------10------10------10-------|
A|------------------------------------------------------------------------------------10--10-------------------------------|
E|-------------------------------------------------------------------------------------------------------------------------]

            
            
Suggest correction
Creating personal tab
Creating personal tab
You can edit any tab online and save it as your Personal.

You can edit, replace or remove any tab part or add personal notes – all changes will be seen only by you.

Personal tabs can be accessed anytime from any device, even offline.
Learn more »
Give kudos to tab author, rate the tab!
1 2 3 4 5
comments
print report bad tab
1 comment total.
0 reply
GODhimself37 217 Sep 19, 2009 04:35 PM

how about we keep songs from The Thirty Years War, into the Thirty Years War section, hmm?

guest
You may want to rate the tab now too:
select rating
Wanna post a correction for this tab? Suggest correction