Oops, an error
Loading. Please wait.

Act One Scene On Bass Tab

8,343 views 6 this week
3 commentsread comments
1 2 3 4 5
excellent!
x 10
add to favorites
launch autoscroll
font size
0
reset
guitar tuner
Tab Pro tools
  • play this tab
  • loop segment
  • change instrument
  • show fretboard
  • metronome
×
Best way to learn
"Act One Scene On"
Autoscroll
slow
fast
+/-
esc
set tempo
stop
Contributor
Difficulty
intermediate
The Fall of Troy-Act One, Scene One
Standard Tuning
| /  slide up
| \  slide down
| h  hammer-on
| p  pull-off
| ~  vibrato
| +  harmonic
| x  Mute note

0:07
G|-----------------------------------2-2-----------------------------|
D|--------------------3-3--3-3--5-5-------2222225533---2222225533----|
A|---------------0-0--------------------------------0~-----------0~--|
E|1-1--1-1--3-3------------------------------------------------------|x2

G|------------------------------------------------------------------|
D|----------------------------------------222222000000222222000000--|
A|---------------0-0-----------------0-0----------------------------|
E|1-1--1-1--3-3-------1-1--1-1--3-3---------------------------------|x2


0:35
G|---------------------------------------------|
D|---------------------------------------------|
A|35-35-35-35-35-35-35-35-8-88887~--8-88887~\--|
E|---------------------------------------------|x3

G|--------------------------------------------|
D|------------------------3-33332~--3-33335~--|
A|35-35-35-35-35-35-35-35---------------------|
E|--------------------------------------------|


1:01
G|------------------------------------------|
D|---32-53-02----32-53-02-3-33332-----------|
A|35----------35----------------------------|
E|---------------------------------1-11110--|x2

G|----------------------------------------------------------|
D|-----3-2--5-3--0-2-------3-2--5-3--0-2--3-33332-----------|
A|3-5-----------------3-5-----------------------------------|
E|-------------------------------------------------1-11110--|

G|------------------------------------------------------------|
D|-----3-2--5-3--0-2-------3-2--5-3--0-2--3-33332--3-33333/5--|
A|3-5-----------------3-5-------------------------------------|
E|------------------------------------------------------------|


1:32
G|---------------------------------------------|
D|---------------------------------------------|
A|35-35-35-35-35-35-35-35-8-88887~--8-88887~\--|
E|---------------------------------------------|x4 (dont slide last)


2:00
G|--------------------------------------------------------------|
D|----------------3---------23202------------------------22222--|
A|0-0-----3-3--------------------0-0-----3-3-----2--2-----------|
E|--------------------------------------------------------------|

G|------------------------------------------------------------------|
D|----------------3---------23202-----------------------------------|
A|0-0-----3-3--------------------0-0-----3-3-----2--2---1--0--0--0--|
E|------------------------------------------------------------------|

G|-------------------------------------------------------------|
D|----------------333333323230202------------------------2222--|
A|0000000033333333---------------00000000333333332--2----------|
E|-------------------------------------------------------------|

G|------------------------------------------------------------------|
D|----------------333333323230202-----------------------------------|
A|0000000033333333---------------00000000333333332--2---1--0--0--0--|
E|------------------------------------------------------------------|


2:35
G|------------------------------------------|
D|---32-53-02----32-53-02-3-33332--3-33332--|
A|35----------35----------------------------|
E|------------------------------------------|

G|------------------------------------------|
D|---32-53-02----32-53-02-3-33332-----------|
A|35----------35----------------------------|
E|---------------------------------1-11110--|

G|-------------------------------------------------|
D|---32-53-02----32-53-02----32-53-02----32-53-02--|
A|35----------35----------35----------35-----------|
E|-------------------------------------------------|


3:06
G|------------------------------------------------------|
D|-------3-2h3-------5-3-2------------------------------|
A|0~-----------3~-------------------------333333222222--|
E|-------------------------1~---------------------------|

G|-----------------------------------------------------|
D|-------3-2h3-------5-3-2-----------------------------|
A|0000000-----333333----------------------33-33-22-22--|
E|-------------------------11111111111111--------------|

G|-------------------------------------------------|
D|-------------------------------------------------|
A|0000000000003333333/55555------------------------|
E|-------------------------1111111111111111111-----|


3:29
G|------222202------5-4-2-------------------------------|
D|------------------------------------------------------|
A|000000------000000-------------------333-333-555-222--|
E|------------------------111111111111------------------|

G|------222202------5-4-2-------------------------------|
D|------------------------------------------------------|
A|0-0-0-------0-0-0--------------------333-333-555-222--|
E|------------------------111---111---------------------|x2

G|------222202------5-4-2-------------------------------|
D|------------------------------------------------------|
A|000000------000000-------------------333-333-555-222--|
E|------------------------111111111111------------------|

G|-------------------------------------|
D|-------------------------------------|
A|333-333-555-222-333-333-555-222-0~~--|
E|-------------------------------------|
comments
print report bad tab
3 comments total.
0 reply
Fi Guitarist wrote on November 8 2007, 10:43 pm

Holy crap! i thought those were 35s...i got really scared and was wondering where you got a bass with 35 frets...but
anyways...great tab!

0 reply
choke383 wrote on November 28 2007, 01:53 pm

hey man, thx for posting my tab! I appreciate your effort

0 reply
dead0ne wrote on February 23 2009, 07:52 am

holy shat

good tabbing

good song

and choke what you mean?

I want to post or [tab]
guest
You may want to rate the tab now too:
select rating
Please do not post tabs as comments. Select "correction" instead!