Oops, an error
Loading. Please wait.

Act One Scene One Bass Tab

version 1
version 1

Whole song

Interactive

1,146 views 1 this week
1 commentread comment
1 2 3 4 5
please rate
add to favorites
launch autoscroll
font size
0
reset
guitar tuner
Tab Pro tools
  • play this tab
  • loop segment
  • change instrument
  • show fretboard
  • metronome
×
Best way to learn
"Act One Scene One"
Autoscroll
slow
fast
+/-
esc
set tempo
stop
Contributor
Difficulty
novice
Tabbed By: Daniel Corrigan
Email: d_snowboard@hotmail.com
INTRO/VERSE(0:06)
G-------------------------------------|
D-------------------------------------|
A-33--33--33--33-----77777765-77777765|x3
E-------------------------------------|
PRE CHORUS(0:30)
G-------------------------|
D-------------------------|
A777799991010101012121212-|
E-------------------------|
CHORUS(0:33)
G---------------------------------------------------------------------------|
D----------------------------------------77777777-55555555-77777777-55555555|
A-3h5--3h5--3h5-3h5--3h5--3h5--3h5--3h5-------------------------------------|x4
E---------------------------------------------------------------------------|
SCREAMING CHORUS(1:02)
G------------------------------------------------------------------|
D---------------------------------7777777-55555555-7777777-55555555|
A-33--55--66--55--33--55--66--55-----------------------------------|x2
E------------------------------------------------------------------|

CHORUS X4(1:33)

BRIDGE(2:01)
G----------------------|
D----------------------|
A--00---00---0---0--0--|
E----------------------|

G-----------------|
D-----------------|
A-----------------|x2(Speed up on second time)
E-0~~-0~~-0~~-0~~-|

SCREAMING CHORUSx2(2:36)

Bridge2(3:06)(bass comes in after guitar) 
G---------------------------------------|
D--------------00~~-2-3-5---------------|  
A-00~~-2-3-5~~------------00~~23-00~~32-|X3
E---------------------------------------|

Guitar Solo(3:29)
G-------------------------------------------------------------------|
D-5-5-5--3-3-3--5-5-5--3-3-3--3-3-3--1-1-1--------------------------|
A-------------------------------------------33-55-77-55-33-55-77-55-|X5
E-------------------------------------------------------------------|

(4:39)
G-------------------|
D-------------------|
A-33-55-77-55--0~~~~|
E-------------------|

Guitar Plays the outro

Any comments or concerns, Contact me at d_snowboard@hotmail.com 

comments
We did not receive enough feedback on this tab! Please rate:
print report bad tab
1 2 3 4 5
1 comment total.
0 reply
dakota_s_ wrote on August 1 2007, 06:51 pm

I'm sorry but this tab had only about one part i liked and that was it the rest was just inaccurate.

I want to post or [tab]
guest
You may want to rate the tab now too:
select rating
Please do not post tabs as comments. Select "correction" instead!