Oops, an error
Loading. Please wait.

Act One Scene One Tab

version 1
version 1

Whole song

Interactive

15,667 views 18 this week
8 commentsread comments
1 2 3 4 5
accurate
x 5
add to favorites
launch autoscroll
font size
0
reset
how to read this tab
guitar tuner
Autoscroll
slow
fast
+/-
esc
set tempo
stop
Help us to improve Ultimate-Guitar.com Take our survey!
×
Tuning
D A D G B E
This song is in drop D.

Intro/Verse
E----------------------------------------------10h8h7p0-------------|
B------------------------------------------8h10--------10h8p0-------|
G-22-22-44-55-22-22-44-55-11-11-22-44--7h9--------------------9h7p0-|
D-------------------------------------------------------------------|
A-22-22-22-22-22-22-22-22-11-11-11-11-------------------------------|
D-33-33-33-33-33-33-33-33-22-22-22-22-------------------------------|

Pre-Chorus: (Jaded Masquerade!)(w/ optional whammy on the octave harmony)
E-------------------------------------------------------------------|
B-------------------------------------------------------------------|
G---------------------------101010-101010-101010-101010-------------|
D---------------------------x-xxxx-x-xxxx-x-xxxx-x-xxxx-------------|
A-3h5-3h5-3h5--3h5-3h5-3h5--8-8888-7-7777-8-8888-7-7777-------------|
D---------------------------x-xxxx-x-xxxx-x-xxxx-x-xxxx-------------|

Chorus: (Lock The Doors~!)
E-------------------------------------------------------------------|
B-------------------------------------------------------------------|
G-----------------------------------101010-101010-101010-101010-----|
D-----3-2-5-2-3-2------3-2-5-2-3-2--x-xxxx-x-xxxx-x-xxxx-x-xxxx-----|
A-3-5--------------3-5--------------8-8888-7-7777-8-8888-7-7777-----|
D-----------------------------------x-xxxx-x-xxxx-x-xxxx-x-xxxx-----|

Bridge Part:
E-7-0-------10-0--------14-0-10-0------------------------------------|
B----8-0--------12-0-8-0---------12-0-10-12-10-0-8-0-7-8-7-0-5-0-3-0-|
G-------7-0----------------------------------------------------------|
D--------------------------------------------------------------------|
A--------------------------------------------------------------------|
D--------------------------------------------------------------------|

E-7-0-------10-0--------14-0-10-0-2----2----------------------------|
B----8-0--------12-0-8-0-----------3--3-3-3--0~---------------------|
G-------7-0-------------------------4----4--------------------------|
D-------------------------------------------------------------------|
A-------------------------------------------------------------------|
D-------------------------------------------------------------------|

Bridge 2: (too lazy to put out the acutal chord picking and strumming structure. but you 
the picture).
E-0-00000-0000-0-00000-0000-|
B-1-11111-1111-1-11111-1111-|
G-2-22222-2222--------------|
D--------------3-33333-3333-|
A---------------------------|

Solo at the end:
E------------------------------------------------------|
B-8-88885-55558-88885-55556-66665-5555-111-111-333-000-|

E-----------------------------------------------------|
B-8-10-12-13-12-10h8h10-8-5-8-10^---------------------|

E-------------------------------------------------10h12h10--|(hammeron part 2x)
B-8h10h8h10h8h10h8-10^-13-15-13-17-15-13-10h13h10-----------|

E-------------------------------------------------------------------|
B-8-5-8-5-6-5-111-111-333-000-111-111-333-000-111-111-333-000-7h8h7-|
G-------------------------------------------------------------00000-|

That solo is partially off, i jhsut configured thsi song likie 10 minutes ago, so my apologies.

This is a profirio tab!
Suggest correction
What's this?
You can suggest a correction to this tab. Community and Mods will review your correction and vote to approve or reject it.
comments
print report bad tab
8 comments total. Showing first comments.
0 reply
MCRrocks 501 wrote on May 10 2006, 08:44 pm

This isn't that bad actually, i just have a few corrections/additions:
For the chorus ("lock the doors") i would play powerchords:
|-----------------------------------------------------|
|-----------------------------------------------------|
|----------------------------101010999999101010999999-|
|--5-7---10-9--12-10--9-10---xxxxxxxxxxxxxxxxxxxxxxxx-|
|--3-5---8--7--10-8---7-8----888888777777888888777777-|
|-----------------------------------------------------|

and also at the end of the bridge solo thing:

|--14p0---------------------------------------------5p2------5p2----
|-------15p0-12p0-10h1210p0-8p0-7h8p7p0-5p0-3p0---------3p0------3p0
|-------------------------------------------------------------------
|-------------------------------------------------------------------
|-------------------------------------------------------------------
|-------------------------------------------------------------------

cont'd

|---------------------------------------------------------
|----------------------------------------------------
|--3--2-2-2-2----------------------------------------
|--3--2-2-2-2-----------------------------------------
|--1--0-0-0-0--------------------------------------------
|----------------------------------------------------
pm . . . .

0 reply
MCRrocks 501 wrote on May 10 2006, 08:45 pm

err, the palm mutes were supposed to be for the A powerchords.

-1 reply
MCRrocks 501 wrote on May 11 2006, 04:06 pm

also the intro isn't correct but i'm not really sure how to fix it

guest
You may want to rate the tab now too:
select rating
Please do not post tabs as comments. Select "correction" instead!